Cifra Club

Aí Já Era

Jorge & Mateus

Cifrado: Principal (guitarra y guitarra eléctrica)
Selo Cifra Club: esta cifra foi revisada para atender aos critérios oficiais da nossa Equipe de Qualidade.
tono: Em
[Intro] C  D  Am7  
        C  D  Em7(9)  
        C  D  Am7  
        C  D  Em7(9)/F#  C9/E

[Tab - Intro]

Parte 1 de 2
            C   D        Am7        C   D     
E|----------7-----------------------7------10-----|
B|---7-8-10---10-8-7-7h8-----7-8-10---10----------|
G|-9---------------------9-9-------------7--------|
D|------------------------------------------------|
A|------------------------------------------------|
E|------------------------------------------------|

   Em7(9)
E|-7----------------------------------------------|
B|---7--------------------------------------------|
G|-----7------------------------------------------|
D|-------7----------------------------------------|
A|------------------------------------------------|
E|------------------------------------------------|

Parte 2 de 2
            C   D        Am7        C   D
E|----------7-----------------------7-------------|
B|---7-8-10---10-8-7-7h8-----7-8-10---10-8-7------|
G|-9---------------------9-9----------------------|
D|------------------------------------------------|
A|------------------------------------------------|
E|------------------------------------------------|

   Em7(9)/F# C9/E
E|------------------------------------------------|
B|-7----------------------------------------------|
G|---7--------------------------------------------|
D|-----7-5p4--------------------------------------|
A|-----------5/7----------------------------------|
E|------------------------------------------------|

[Primeira Parte]

 G               
Para pra pensar
       C9
Porque eu já me toquei  
G                       C9
Eu te escolhi e você me escolheu

Eu sei 
 G7M           
Tá escancarado
       C9
Vai negar pro coração? 
          G         D           C9
Que você tá com sintomas de paixão!

            Em7(9)         
É quando os olhos se caçam
        D
Em meio à multidão 
          C9              
Quando a gente se esbarra
             D
Andando em qualquer direção 
       G               
Quando indiscretamente
         D                  
A gente vai perdendo o chão  
               C9
E vai ficando bobo
             
Vai ficando bobo

[Refrão]

   D    G           D          C9
E aí já era é hora de se entregar
    D         G   
O amor não espera
            D        C9
Só deixa o tempo passar 
         D      Bm       B7        Em
E fica pro coração a missão de avisar
            D       C9 
E o meu tá dando sinal
         D
E tá querendo te amar! 

[Solo] C  D  Am7 
       C  D  Em7(9)
       C  D  Am7
       C  D  Em7(9)/F#  C9/E

[Tab - Solo]

Parte 1 de 4
            C   D        Am7
E|----------7-------------------------------------|
B|---7-8-10---10-8-7-7h8---10b12-10-8-------------|
G|-9---------------------9------------------------|
D|------------------------------------------------|
A|------------------------------------------------|
E|------------------------------------------------|

Parte 2 de 4
            C   D     Em7(9)
E|----------7------10-7---------------------------|
B|---7-8-10---10----------------------------------|
G|-9-------------7----------7-7-------------------|
D|----------------------7h9-----9-----------------|
A|------------------------------------------------|
E|------------------------------------------------|

Parte 3 de 4
            C   D        Am7
E|----------7-------------------------------------|
B|---7-8-10---10-8-7-7h8---10b12-10-8-------------|
G|-9---------------------9------------------------|
D|------------------------------------------------|
A|------------------------------------------------|
E|------------------------------------------------|

Parte 4 de 4
                                       H.n
             C   D    Em7(9)/F# C9/E                                           
E|-----------7--------------------------12--------|
B|----7-8-10---10-8-7-7-----------------12--------|
G|--9-------------------7-------------------------|
D|------------------------7-5p4-------------------|
A|------------------------------5/7---------------|
E|------------------------------------------------|

[Primeira Parte]

 G               
Para pra pensar
       C9
Porque eu já me toquei  
G                       C9
Eu te escolhi e você me escolheu

Eu sei 
 G7M           
Tá escancarado
       C9
Vai negar pro coração? 
          G         D           C9
Que você tá com sintomas de paixão!

            Em7(9)         
É quando os olhos se caçam
        D
Em meio à multidão 
          C9              
Quando a gente se esbarra
             D
Andando em qualquer direção 
       G               
Quando indiscretamente
         D                  
A gente vai perdendo o chão  
               C9
E vai ficando bobo
             
Vai ficando bobo

[Refrão]

   D    G           D          C9
E aí já era é hora de se entregar
    D         G   
O amor não espera
            D        C9
Só deixa o tempo passar 
         D      Bm       B7        Em
E fica pro coração a missão de avisar
            D       C9 
E o meu tá dando sinal
         D
E tá querendo te amar! 

   D    G           D          C9
E aí já era é hora de se entregar
    D         G   
O amor não espera
            D        C9
Só deixa o tempo passar 
         D      Bm       B7        Em
E fica pro coração a missão de avisar
            D       C9 
E o meu tá dando sinal
         D
E tá querendo te amar! 

            D       C9 
E o meu tá dando sinal
         D
E tá querendo te amar! 

[Final] C  D  Am7
        C  D  Em7(9)
        C  D  Am7
        C  D  Em7(9)  C9/E
        G

[Tab - Final]

Parte 1 de 4 
            C   D        Am7
E|----------7-------------------------------------|
B|---7-8-10---10-8-7-7h8---10b12-10-8-------------|
G|-9---------------------9------------------------|
D|------------------------------------------------|
A|------------------------------------------------|
E|------------------------------------------------|

Parte 2 de 4
            C   D     Em7(9)
E|----------7------10-7---------------------------|
B|---7-8-10---10----------------------------------|
G|-9-------------7----------7-7-------------------|
D|----------------------7h9-----9-----------------|
A|------------------------------------------------|
E|------------------------------------------------|

Parte 3 de 4
            C   D        Am7
E|----------7-------------------------------------|
B|---7-8-10---10-8-7-7h8---10b12-10-8-------------|
G|-9---------------------9------------------------|
D|------------------------------------------------|
A|------------------------------------------------|
E|------------------------------------------------|

Parte 4 de 4
                                     H.n 
             C   D    Em7(9)/F#              G                                    
B|-----------7------------------------12-----3----|
G|----7-8-10---10-8---7-7-------------12-----3----|
D|--9---------------------7------------------0----|
A|--------------------------7-5p4------------0----|
E|-------------------------------------------2----|
E|-------------------------------------------3----|
Otros videos de esta canción
    4.878.190 exhibiciones
    • Simplificar cifrado
      • ½ Tono
      • Am
      • Bbm
      • Bm
      • Cm
      • C#m
      • Dm
      • Ebm
      • Em
      • Fm
      • F#m
      • Gm
      • G#m
    • Agregar a la lista

    Afinación de cifrado

    Afinador online

      Capítulos
      • Início
      • Tocando a música
      • Acordes da introdução
      • Tocando introdução
      • Ensinando solo da intro (parte 1)
      • Ensinando solo da intro (parte 2)
      • Ensinando base da intro (violão 2)
      • Acordes da primeira parte
      • Tocando primeira parte
      • Ensinando ritmo da primeira estrofe
      • Ensinando ritmo da segunda estrofe
      • Acordes do refrão
      • Tocando refrão
      • Ensinando ritmo do refrão
      • Ensinando solo violão (parte 1)
      • Ensinando solo violão (parte 2)
      • Ensinando solo violão (parte 3)
      • Ensinando solo violão (parte 4)
      • Encerramento
      OK