Cifra Club

Aprenda

Aí Já Era

Jorge e Mateus

Tablatura: Principal (guitarra)
tono: Em
[Intro] C  D  Am7  
        C  D  Em7(9)  
        C  D  Am7  
        C  D  Em7(9)/F#  C9/E

            C   D        Am7        C   D     Em7(9)
E|----------7-----------------------7------10-7-------|
B|---7-8-10---10-8-7-7h8-----7-8-10---10--------7-----|
G|-9---------------------9-9-------------7--------7---|
D|--------------------------------------------------7-|
A|----------------------------------------------------|
E|----------------------------------------------------|

            C   D        Am7        C   D
E|----------7-----------------------7-----------------|
B|---7-8-10---10-8-7-7h8-----7-8-10---10-8-7----------|
G|-9---------------------9-9--------------------------|
D|----------------------------------------------------|
A|----------------------------------------------------|
E|----------------------------------------------------|

   Em7(9)/F# C9/E
E|----------------------------------------------------|
B|-7--------------------------------------------------|
G|---7------------------------------------------------|
D|-----7-5p4------------------------------------------|
A|-----------5/7--------------------------------------|
E|----------------------------------------------------|

[Primeira Parte]

 G                      C9
Para pra pensar, porque eu já me toquei
G                       C9
Eu te escolhi e você me escolheu, eu sei
 G7M                   C9
Tá escancarado, vai negar pro coração?
          G         D           C9
Que você tá com sintomas de paixão!

            Em7(9)                 D
É quando os olhos se caçam em meio à multidão
          C9                           D
Quando a gente se esbarra andando em qualquer direção
       G                        D                  
Quando indiscretamente a gente vai perdendo o chão 
               C9
E vai ficando bobo
             
Vai ficando bobo

[Refrão]

   D    G           D          C9
E aí já era é hora de se entregar
    D         G                D        C9
O amor não espera, só deixa o tempo passar
         D      Bm       B7        Em
E fica pro coração a missão de avisar
            D       C9          D
E o meu tá dando sinal e tá querendo te amar!

[Solo] C  D  Am7 
       C  D  Em7(9)
       C  D  Am7
       C  D  Em7(9)/F#  C9/E

            C   D        Am7
E|----------7-----------------------------------------|
B|---7-8-10---10-8-7-7h8---10b12-10-8-----------------|
G|-9---------------------9----------------------------|
D|----------------------------------------------------|
A|----------------------------------------------------|
E|----------------------------------------------------|

            C   D     Em7(9)
E|----------7------10-7-------------------------------|
B|---7-8-10---10--------------------------------------|
G|-9-------------7----------7-7-----------------------|
D|----------------------7h9-----9---------------------|
A|----------------------------------------------------|
E|----------------------------------------------------|

            C   D        Am7
E|----------7-----------------------------------------|
B|---7-8-10---10-8-7-7h8---10b12-10-8-----------------|
G|-9---------------------9----------------------------|
D|----------------------------------------------------|
A|----------------------------------------------------|
E|----------------------------------------------------|

             C   D    Em7(9)/F# C9/E 
E|-----------7--------------------h.n-12--------------|
B|----7-8-10---10-8-7-7-----------h.n-12--------------|
G|--9-------------------7-----------------------------|
D|------------------------5p4-------------------------|
A|----------------------------5/7---------------------|
E|----------------------------------------------------|

[Primeira Parte]

 G                      C9
Para pra pensar, porque eu já me toquei
G                       C9
Eu te escolhi e você me escolheu, eu sei
 G7M                   C9
Tá escancarado, vai negar pro coração?
          G         D           C9
Que você tá com sintomas de paixão!

            Em7(9)                 D
É quando os olhos se caçam em meio à multidão
          C9                           D
Quando a gente se esbarra andando em qualquer direção
       G                        D                  
Quando indiscretamente a gente vai perdendo o chão 
               C9
E vai ficando bobo
             
Vai ficando bobo

[Refrão] (2x)

   D    G           D          C9
E aí já era é hora de se entregar
    D         G                D        C9
O amor não espera, só deixa o tempo passar
         D      Bm       B7        Em
E fica pro coração a missão de avisar
            D       C9          D         G
E o meu tá dando sinal e tá querendo te amar!

   D    G           D          C9
E aí já era é hora de se entregar
    D         G                D        C9
O amor não espera, só deixa o tempo passar
         D      Bm       B7        Em
E fica pro coração a missão de avisar
            D       C9          D         Am  Em
E o meu tá dando sinal e tá querendo te amar!
            D       C9          D
E o meu tá dando sinal e tá querendo te amar!

[Final] C  D  Am7
        C  D  Em7(9)
        C  D  Am7
        C  D  Em7(9)  C9/E
        G

            C   D        Am7
E|----------7-----------------------------------------|
B|---7-8-10---10-8-7-7h8---10b12-10-8-----------------|
G|-9---------------------9----------------------------|
D|----------------------------------------------------|
A|----------------------------------------------------|
E|----------------------------------------------------|

            C   D     Em7(9)
E|----------7------10-7-------------------------------|
B|---7-8-10---10--------------------------------------|
G|-9-------------7----------7-7-----------------------|
D|----------------------7h9-----9---------------------|
A|----------------------------------------------------|
E|----------------------------------------------------|

            C   D        Am7
E|----------7-----------------------------------------|
B|---7-8-10---10-8-7-7h8---10b12-10-8-----------------|
G|-9---------------------9----------------------------|
D|----------------------------------------------------|
A|----------------------------------------------------|
E|----------------------------------------------------|

             C   D    Em7(9)/F#            G
E|-----------7------------------h.n-12-----3----------|
B|----7-8-10---10-8---7-7-------h.n-12-----3----------|
G|--9---------------------7----------------0----------|
D|--------------------------5p4------------0----------|
A|-----------------------------------------2----------|
E|-----------------------------------------3----------|
Composição de Jorge Barcelos
2.510 reproducciones
  • Simplificar cifra
    • ½ Tono
    • Am
    • Bbm
    • Bm
    • Cm
    • C#m
    • Dm
    • Ebm
    • Em
    • Fm
    • F#m
    • Gm
    • G#m
  • Adicionar à lista

    0 comentarios

    Ver todos os comentários
    00:00 / 00:00
    outros vídeos desta música
    repetir qualidade Automático
    Outros vídeos desta música
    00:00 / 00:00
    Automático
    Capítulos
    • Início
    • Tocando a música
    • Acordes da introdução
    • Tocando introdução
    • Ensinando solo da intro (parte 1)
    • Ensinando solo da intro (parte 2)
    • Ensinando base da intro (violão 2)
    • Acordes da primeira parte
    • Tocando primeira parte
    • Ensinando ritmo da primeira estrofe
    • Ensinando ritmo da segunda estrofe
    • Acordes do refrão
    • Tocando refrão
    • Ensinando ritmo do refrão
    • Ensinando solo violão (parte 1)
    • Ensinando solo violão (parte 2)
    • Ensinando solo violão (parte 3)
    • Ensinando solo violão (parte 4)
    • Encerramento
    OK