Cifra Club

Aprenda

Alçapão

Jorge e Mateus

Tablatura: Principal (guitarra)
tono: D#
Intro:
    Ab  G             Cm              G
E|----------------------------------------------------|
B|-4---3---6-6-6-4-3-4-3---4-4-4-3---3h4p3------------|
G|---5---4---------------5---------5-------5-4h5p4----|
D|----------------------------------------------------|
A|----------------------------------------------------|
E|----------------------------------------------------|

                    Cm
E|----------------------------------------------------|
B|----------------------------------------------------|
G|----------------------------------------------------|
D|-6-5h6p5-3-5---3-5h6-5-3-5--------------------------|
A|-------------5--------------------------------------|
E|----------------------------------------------------|

     Ab  G              Cm                G
E|----------------------------------------------------|
B|-4---3-3---6-6-6-4-6-6/8-6---4-4-4-3---3h4p3--------|
G|---5-----4-----------------8---------5-------5-4h5p4|
D|----------------------------------------------------|
A|----------------------------------------------------|
E|----------------------------------------------------|
              Cm
E|----------------------------------------------------|
B|----------------------------------------------------|
G|---------------6-5-3--------------------------------|
D|-6-5h6p5-4-5-3-----------3--------------------------|
A|---------------------3-6----------------------------|
E|----------------------------------------------------|

           Cm                              G
Você acha fácil chegar dizendo que vai embora

Que já se cansou,que se apaixonou
              Cm
Por outra pessoa
               C7                           Fm
Feito um passarinho que fez o ninho na sua mão
           Cm                 G
Tão apaixonado eu fiquei trancado
            Cm
Em seu alçapão
             Bb
Eu nunca pensei que o nosso amor
           Eb
Fosse uma mentira,
             Bb
E que me iludia quando pedia
             Eb
Os carinhos meus
            Fm
Eu te dei amor demais
           Cm
Te amei como ninguém
         Ab             G
E agora vem sem ter piedade
          C
Dizendo a___deus

Refrão:
               C
Não faz desse jeito não
               G
Não sufoque essa paixão

Eu não quero ouvir você me dizer
             C
Que tá numa boa

Não faz desse jeito não
               G
Não sufoque essa paixão

Eu não sou brinquedo
                            C
Que você brinca e depois enjoa

Intro:
    Ab  G             Cm              G
E|----------------------------------------------------|
B|-4---3---6-6-6-4-3-4-3---4-4-4-3---3h4p3------------|
G|---5---4---------------5---------5-------5-4h5p4----|
D|----------------------------------------------------|
A|----------------------------------------------------|
E|----------------------------------------------------|

                    Cm
E|----------------------------------------------------|
B|----------------------------------------------------|
G|----------------------------------------------------|
D|-6-5h6p5-3-5---3-5h6-5-3-5--------------------------|
A|-------------5--------------------------------------|
E|----------------------------------------------------|

     Ab  G              Cm                G
E|----------------------------------------------------|
B|-4---3-3---6-6-6-4-6-6/8-6---4-4-4-3---3h4p3--------|
G|---5-----4-----------------8---------5-------5-4h5p4|
D|----------------------------------------------------|
A|----------------------------------------------------|
E|----------------------------------------------------|
              Cm
E|----------------------------------------------------|
B|----------------------------------------------------|
G|---------------6-5-3--------------------------------|
D|-6-5h6p5-4-5-3-----------3--------------------------|
A|---------------------3-6----------------------------|
E|----------------------------------------------------|

             Bb
Eu nunca pensei que o nosso amor
           Eb
Fosse uma mentira
             Bb
E que me iludia quando pedia
             Eb
Os carinhos meus
            Fm
Eu te dei amor demais
           Cm
Te amei como ninguém
         Ab             G
E agora vem sem ter piedade
          C
Dizendo a___deus

Refrão:
               C
Não faz desse jeito não
               G
Não sufoque essa paixão

Eu não quero ouvir você me dizer
             C
Que tá numa boa

Não faz desse jeito não
               G
Não sufoque essa paixão

Eu não sou brinquedo
                            C
Que você brinca e depois enjoa
               C
Não faz desse jeito não
               G
Não sufoque essa paixão

Eu não quero ouvir você me dizer
             C
Que tá numa boa

Não faz desse jeito não
               G
Não sufoque essa paixão

Eu não sou brinquedo
                            C
Que você brinca e depois enjoa

Intro:
     Ab  G              Cm                G
E|----------------------------------------------------|
B|-4---3-3---6-6-6-4-6-6/8-6---4-4-4-3---3h4p3--------|
G|---5-----4-----------------8---------5-------5-4h5p4|
D|----------------------------------------------------|
A|----------------------------------------------------|
E|----------------------------------------------------|
              Cm
E|----------------------------------------------------|
B|----------------------------------------------------|
G|---------------6-5-3--------------------------------|
D|-6-5h6p5-4-5-3-----------3--------------------------|
A|---------------------3-6----------------------------|
E|----------------------------------------------------|
Colaboración y revision:
  • Breno
97 reproducciones
    • ½ Tono
    • A
    • Bb
    • B
    • C
    • Db
    • D
    • Eb
    • E
    • F
    • F#
    • G
    • Ab
  • Adicionar à lista

    0 comentarios

    Ver todos os comentários
    00:00 / 00:00
    outros vídeos desta música
    repetir qualidade Automático
    Outros vídeos desta música
    00:00 / 00:00
    Automático
    OK