Cifra Club

Aprenda

Alguém Me Disse

Jorge e Mateus

Tablatura: Principal (guitarra)
tono: E
Intro:
                   E   G#  A       E            F#
E|-----------4-4/7---8---9-7---------12----12-------4-|
B|-----4-5-7-------9---9-----10-------------------2---|
G|-4-6-------------------------11/13----13------3-----|
D|--------------------------------------------4-------|
A|----------------------------------------------------|
E|----------------------------------------------------|

                   B
E|-2-------4-2-2/7-12-12-11-9-------------------------|
B|-------2--------------------12----------------------|
G|-----3----------------------------------------------|
D|---4------------------------------------------------|
A|----------------------------------------------------|
E|----------------------------------------------------|

B            E
  Alguém me disse que você falou
            B
Quem acha graça e tem pena de mim
           A
Que não me ama
                                  B7
Que o nosso caso já chegou ao fim
       E
O telefone não atende mais
         B
E pra você agora tanto faz
         A
Se é verdade que você não quer
           B7
Responda se puder?

            A                    G#
Quem é que liga no meio da noite
                 C#m
Diz que está sozinha?
                      E7                   A
Quem é que nos meus braços fala que é só minha?
               B7                 E
E chora de emoção na hora do prazer?
B7           E                  G#                  C#m
  Por que será que você não assume que eu sou seu homem?
                 E7                A
Por que o tempo todo fala no meu nome?
                B7                   E
Confessa que você não sabe me esquecer!

Refrão:
E7                A
   Tem nada a ver
               B               C#m
Você é quem está fugindo da verdade
                E7             A
Parece que tem medo da felicidade
                B                    E
Você diz que não seu corpo diz que sim
E7                A
   Tem nada a ver
               B            G#         C#m
A boca que me beija a mão que me apedreja
                   E7                A
Te deito em minha cama depois se difama
                    B
Diz que não me quer
                 E    B7
Mas vive atrás de mim

Solo:
                   E   G#  A       E            F#
E|-----------4-4/7---8---9-7---------12----12-------4-|
B|-----4-5-7-------9---9-----10-------------------2---|
G|-4-6-------------------------11/13----13------3-----|
D|--------------------------------------------4-------|
A|----------------------------------------------------|
E|----------------------------------------------------|

                   B
E|-2-------4-2-2/7-12-12-11-9-------------------------|
B|-------2--------------------12----------------------|
G|-----3----------------------------------------------|
D|---4------------------------------------------------|
A|----------------------------------------------------|
E|----------------------------------------------------|

B            E
  Alguém me disse que você falou
            B
Quem acha graça e tem pena de mim
           A
Que não me ama
                                  B7
Que o nosso caso já chegou ao fim
       E
O telefone não atende mais
         B
E pra você agora tanto faz
         A
Se é verdade que você não quer
           B7
Responda se puder?
            E                    G#
Quem é que liga no meio da noite
                 C#m
Diz que está sozinha?
                      E7                   A
Quem é que nos meus braços fala que é só minha?
               B7                 E
E chora de emoção na hora do prazer?
B7           E                  G#                  C#m
  Por que será que você não assume que eu sou seu homem?
                 E7                A
Por que o tempo todo fala no meu nome?
                B7                   E
Confessa que você não sabe me esquecer!

Refrão:
E7                A
   Tem nada a ver
               B                 E
Você é quem está fugindo da verdade
                E7             A
Parece que tem medo da felicidade
                B                    E
Você diz que não seu corpo diz que sim
E7                A
   Tem nada a ver
               B            G#         C#m
A boca que me beija a mão que me apedreja
                   E7                A
Te deito em minha cama depois se difama
                    B
Diz que não me quer
                 A    Am  E  A  E
Mas vive atrás de mim
Colaboración y revision:
  • luiza correa
  • Breno
453 reproducciones
    • ½ Tono
    • A
    • Bb
    • B
    • C
    • Db
    • D
    • Eb
    • E
    • F
    • F#
    • G
    • Ab
  • Adicionar à lista

    0 comentarios

    Ver todos os comentários
    00:00 / 00:00
    outros vídeos desta música
    repetir qualidade Automático
    Outros vídeos desta música
    00:00 / 00:00
    Automático
    OK