Cifra Club

Aprenda

Amor Mal Resolvido (part. Simone e Simaria)

Jorge e Mateus

Tablatura: Principal (guitarra)
Tom: Bb (con acordes en la forma de A) Capotraste na 1ª casa
[Intro] F#m  D  A  E

 
E|----------------------------------------------------------|
B|----------------------------------------------------------|
G|---2-3-33-3-----2-3-3-33--5-3----2-3-33-3-5-3-2-----------|
D|-5------------5----------------5----------------5-3-------|
A|----------------------------------------------------------|
E|----------------------------------------------------------|

     A
O que foi?
     D                                    A
Tá batendo na minha porta essas horas será por quê?
     D                                                A
Qual foi a parte que você não entendeu, não quero mais te ver
      E
Queria eu que fosse mesmo assim
        D9
Mais o amor falou mais alto outra vez
    E
E olha a besteira que a gente fez

Cm                           F#m
   O meu lençol tá todo bagunçado
                             Cm
Você deixou marcas pra todo lado

Depois do amor adormeci
        D                    E
E só acordei com o barulho do seu carro

      F#m        D
Foi embora outra vez

Como da última vez
   A                  E
Matou sua vontade abusando da sua ex
      F#m             D
Que sempre te atende nessas horas de carência
   A                  E
E depois paga o preço sofrendo as consequências

           Gm        D
Foi embora outra vez

Como da última vez
   A                   E
Matou sua vontade abusando da sua ex
      F#m             D
Que sempre te atende nessas horas de carência
   A                  E
E depois paga o preço sofrendo as consequências

D                         E
De um amor mal resolvido

Gostar de você é meu pior castigo

( F#m D# A# F )

  
E|----------------------------------------------------------------------|
B|----------------------------------------------------------------------|
G|---2-3-33-3-----2-3-3-33--5-3----2-3-33-3-5-3-2-----------------------|
D|-5------------5----------------5----------------5-3-------------------|
A|----------------------------------------------------------------------|
E|----------------------------------------------------------------------|

( Dm A# F C )

 
E|---------------------------------------------------------------------|
B|---------------------------------------------------------------------|
G|----9-10-1010-10----8-10-1010-10-12-10---8-10-1010-10-12-10-9--------|
D|-12---------------12-------------------12--------------------12-10---|
A|---------------------------------------------------------------------|
E|---------------------------------------------------------------------|

     F
O que foi?
     Bb                                     F
Tá batendo na minha porta essas horas será por quê?
     Bb                                                F
Qual foi a parte que você não entendeu, não quero mais te ver
      C
Queria eu que fosse mesmo assim
        Bb
Mais o amor falou mais alto outra vez
   C
E olha a besteira que a gente fez

Gm                           Dm
   O meu lençol tá todo bagunçado
                             Gm
Você deixou marcas pra todo lado

Depois do amor adormeci
        Bb                    C
E só acordei com o barulho do seu carro

      Dm        Bb
Foi embora outra vez

Como da última vez
   F                 C
Matou sua vontade abusando da sua ex
      Dm              Bb
Que sempre te atende nessas horas de carência
   F                  C
E depois paga o preço sofrendo as consequências

      Dm        Bb
Foi embora outra vez

Como da última vez
   F                 C
Matou sua vontade abusando da sua ex
      Dm              Bb
Que sempre te atende nessas horas de carência
   F                  C
E depois paga o preço sofrendo as consequências

      Dm        Bb
Foi embora outra vez

Como da última vez
   F                 C
Matou sua vontade abusando da sua ex
      Dm              Bb
Que sempre te atende nessas horas de carência
   F                  C
E depois paga o preço sofrendo as consequências

Bb                       C
De um amor mal resolvido

Gostar de você é meu pior castigo
318 reproducciones
    • ½ Tom
    • A
    • Bb
    • B
    • C
    • Db
    • D
    • Eb
    • E
    • F
    • F#
    • G
    • Ab
  • Adicionar à lista

    0 comentarios

    Mostrar mais comentários
    00:00 / 00:00
    outros vídeos desta música
    repetir qualidade Automático
    Outros vídeos desta música
    00:00 / 00:00
    Automático
    OK