Cifra Club

Aprenda

Amor Turista

Jorge e Mateus

Tablatura: Principal (guitarra)
Tom: G
[Intro] G  D  Em  C

     G                        D                           Em         C
E|-----------------------------------------------------------------------------------|
B|------------------------------------------------------------8---8~---7-------------|
G|----4/7-7-----7---7h9---p7----4/7-7-----7--7---7h9-----------------------9---7---7-|
D|-----------9-------------------------9---------------9-----------------------------|
A|-----------------------------------------------------------------------------------|
E|-----------------------------------------------------------------------------------|

         G
Você de novo, com a sua mochila
         A                C
Será que essa noite você fica?
          G                  D
Ou vai embora, igual aquele dia?
              A
Não me acostumei
                     C
Com esse seu amor turista

                Em
Vai que eu dou sorte
             A
Nesse vai e volta
                   C
Você bate aqui na porta
Sem mochila
                         Em
Com um caminhão de mudança
           D
E as suas coisas
                    A
Se misturam com as minhas
            C
Na mesma gaveta, cueca e calcinha

 G                D
Vem pra ficar de vez
                 Em
Aqui na minha cama
                   C
Porque no meu coração
                   G
Você já anda de pijama
                D
É pra ficar de vez
                 Em
Aqui na minha cama
                   C
Porque no meu coração
                   G
Você já anda de pijama

            D
E faz é mês
               A
Não é uma semana
               C
Que o meu coração
                 G
Já sabe que te ama
            D
E faz é mês
              A
Não é uma semana
               C
Que o meu coração

Já sabe que te ama

[Solo]

      G                        D                           Em         C
E|-----------------------------------------------------------------------------------|
B|----------------------------------------------------------5/8---8~---7-------------|
G|----4/7-7-----7---7h9---p7----4/7-7-----7--7---7h9-----------------------9---7---7-|
D|-----------9-------------------------9---------------9-----------------------------|
A|-----------------------------------------------------------------------------------|
E|-----------------------------------------------------------------------------------|

      G                        D                           Em     C
E|------------------------------------------------------------------------------7-----|
B|------------------------------------------------------------------------------8-----|
G|----7-----7---7---7h9---p7----4/7-7-----7--7---7h9----------------------------7-----|
D|-9-----9-----------------------------9---------------9----9h10---9p7--7---5---0-----|
A|------------------------------------------------------------------------------------|
E|------------------------------------------------------------------------------------|

         G
Você de novo, com a sua mochila
         A                C
Será que essa noite você fica?
          G                  D
Ou vai embora, igual aquele dia?
              A
Não me acostumei
                     C
Com esse seu amor turista

                Em
Vai que eu dou sorte
             A
Nesse vai e volta
                   C
Você bate aqui na porta
Sem mochila
                         Em
Com um caminhão de mudança
           D
E as suas coisas
                    A
Se misturam com as minhas
            C
Na mesma gaveta, cueca e calcinha

 G                D
Vem pra ficar de vez
                 Em
Aqui na minha cama
                   C
Porque no meu coração
                   G
Você já anda de pijama
                D
É pra ficar de vez
                 Em
Aqui na minha cama
                   C
Porque no meu coração
                   G
Você já anda de pijama

            D
E faz é mês
               A
Não é uma semana
               C
Que o meu coração
                 G
Já sabe que te ama
            D
E faz é mês
              A
Não é uma semana
               C
Que o meu coração

Já sabe que te ama

[Final] G  D  G
Compositor Talles Lessa
Colaboración y revision:
41 reproducciones
    • ½ Tom
    • A
    • Bb
    • B
    • C
    • Db
    • D
    • Eb
    • E
    • F
    • F#
    • G
    • Ab
  • Adicionar à lista

    0 comentarios

    Mostrar mais comentários
    00:00 / 00:00
    outros vídeos desta música
    repetir qualidade Automático
    Outros vídeos desta música
    00:00 / 00:00
    Automático
    OK