Cifra Club

Querendo Te Amar

Jorge & Mateus

Cifrado: Principal (guitarra y guitarra eléctrica)
Já pensou em usar uma coleção de roupas do Cifra Club? Responda as perguntas abaixo e nos ajude nessa missão! →
tono: A (con acordes en la forma de G) Capotraste en 2ª casa
[Intro] G  A  C  Cm
        G  A  C  Cm

E|------------------------------------------|
B|-12-12-12-12-12-12-12\10------------------|
G|------------------------------------------|
D|------------------------------------------|
A|------------------------------------------|
E|------------------------------------------|

E|------------------------------------------|
B|-10-10-10-10-10-10-10\8--8-8--------------|
G|------------------------------------------|
D|------------------------------------------|
A|------------------------------------------|
E|------------------------------------------|

E|------------------------------------------|
B|-10-8-10/11--10-8-------------------------|
G|------------------8--8h10-8-7-------------|
D|------------------------------------------|
A|------------------------------------------|
E|------------------------------------------|

E|------------------------------------------|
B|-12-12-12-12-12-12-12\10------------------|
G|------------------------------------------|
D|------------------------------------------|
A|------------------------------------------|
E|------------------------------------------|

E|------------------------------------------|
B|-10-10-10-10-10-10-10\8--8-8--------------|
G|------------------------------------------|
D|------------------------------------------|
A|------------------------------------------|
E|------------------------------------------|

E|------------------------------------------|
B|-10-8-10/11--10-8-------------------------|
G|------------------8~----------------------|
D|------------------------------------------|
A|------------------------------------------|
E|------------------------------------------|

[Primeira Parte]

G                    A
  Vê se larga de besteira
                 C
Tô aqui dando bobeira
    Cm        G
Querendo te amar
                           A
E já faz tempo que eu te quero
                            C
Há tanto tempo que eu te espero
       Cm          G
Vê se para pra pensar
                        A
Tô com saudade do teu cheiro
                    C
E desse seu cabelo preto
         Cm          G
Se espalhando sobre mim
                  A
Sua boca pedindo beijo
                   C
E aumentando meu desejo

[Pré-Refrão]

      Cm             Em
Não demora, vem pra mim
          A
Quando você chegar
           C            D
Vai se perder no meu olhar

[Refrão]

G                        D               Em
  Eu sei de tudo que se passa nessa sua vida
                      C                   G
Eu sei que assim como eu você não está feliz
                              D                 Em
Eu sei que às vezes pensa em mim quando está sozinha
                        C                  Em
E isso prova que esse amor tá criando raiz
                      A7                     C
Em todo caso perde o medo de curtir essa paixão
    Am       C            D                G
Que entra pela porta da frente do meu coração

[Solo] G  A  C  Cm
       G  A  C  Cm

E|------------------------------------------|
B|-12-12-12-12-12-12-12\10------------------|
G|------------------------------------------|
D|------------------------------------------|
A|------------------------------------------|
E|------------------------------------------|

E|------------------------------------------|
B|-10-10-10-10-10-10-10\8--8-8--------------|
G|------------------------------------------|
D|------------------------------------------|
A|------------------------------------------|
E|------------------------------------------|

E|------------------------------------------|
B|-10-8-10/11--10-8-------------------------|
G|------------------8--8h10-8-7-------------|
D|------------------------------------------|
A|------------------------------------------|
E|------------------------------------------|

E|------------------------------------------|
B|-12-12-12-12-12-12-12\10------------------|
G|------------------------------------------|
D|------------------------------------------|
A|------------------------------------------|
E|------------------------------------------|

E|------------------------------------------|
B|-10-10-10-10-10-10-10\8--8-8--------------|
G|------------------------------------------|
D|------------------------------------------|
A|------------------------------------------|
E|------------------------------------------|

E|------------------------------------------|
B|-10-8-10/11--10-8-------------------------|
G|------------------8~----------------------|
D|------------------------------------------|
A|------------------------------------------|
E|------------------------------------------|

[Primeira Parte]

G                    A
  Vê se larga de besteira
                 C
Tô aqui dando bobeira
    Cm        G
Querendo te amar
                           A
E já faz tempo que eu te quero
                            C
Há tanto tempo que eu te espero
       Cm          G
Vê se para pra pensar
                        A
Tô com saudade do teu cheiro
                    C
E desse seu cabelo preto
         Cm          G
Se espalhando sobre mim
                  A
Sua boca pedindo beijo
                   C
E aumentando meu desejo

[Pré-Refrão]

      Cm             Em
Não demora, vem pra mim
          A
Quando você chegar
           C            D
Vai se perder no meu olhar

[Refrão]

G                        D               Em
  Eu sei de tudo que se passa nessa sua vida
                      C                   G
Eu sei que assim como eu você não está feliz
                              D                 Em
Eu sei que às vezes pensa em mim quando está sozinha
                        C                  Em
E isso prova que esse amor tá criando raiz
                      A7                     C
Em todo caso perde o medo de curtir essa paixão
    Am       C            D                
Que entra pela porta da frente do meu coração

G                        D               Em
  Eu sei de tudo que se passa nessa sua vida
                      C                   G
Eu sei que assim como eu você não está feliz
                              D                 Em
Eu sei que às vezes pensa em mim quando está sozinha
                        C                  Em
E isso prova que esse amor tá criando raiz
                      A7                     C
Em todo caso perde o medo de curtir essa paixão
    Am       C            D                G
Que entra pela porta da frente do meu coração

    C                     D                C  Cm  G  D  G
Que entra pela porta da frente do meu coração
Composición de Jorge Alves Barcelos
Colaboración y revisión:
1.760 vistas
    • ½ Tono
    • A
    • Bb
    • B
    • C
    • Db
    • D
    • Eb
    • E
    • F
    • F#
    • G
    • Ab
  • Agregar a la lista

    0 comentarios

    Ver todos los comentarios
    00:00 / 00:00
    Outros vídeos desta música
    Repetir Calidad Automático
    Outros vídeos desta música
    00:00 / 00:00
    Automático
    OK