Cifra Club

Aprenda

Caso Marcado

Jorge e Mateus

Tablatura: Principal (guitarra)
Tom: G
Intro:
      G                   D                    C                        G
E|-------------7------------------7-7-7-------------------10---9---8--7---|
B|------8--10----10--8--8^10-10---------10--8--8----------12--11--10--8---|
G|---7-----------------------------------------9--------------------------|
D|------------------------------------------------------------------------|
A|------------------------------------------------------------------------|
E|------------------------------------------------------------------------|

 D
E|----------------------------------------7-7-7--------------------------|
B|----------------------------------------------10--8---8^10--10---------|
G|---7^9---7---------------------------7---------------------------------|
D|------------10--9--7------9--------------------------------------------|
A|----------------------10-----------------------------------------------|
E|-----------------------------------------------------------------------|

                C                           G
E|-7-7-7---------------------------7-----10-8-7--------------------------|
B|------10--8---8-----------7-8-10--------------10-8-7-------------------|
G|--------------9-------7-9----------------------------9-7---------------|
D|---------------------------------------------------------10-9-7--------|
A|----------------------------------------------------------------10-----|
E|-----------------------------------------------------------------------|
                               OU

E|--------------2----------------------------3-|
B|--------------3------------1--1-1-2-3-1-0--3-|
G|-0-0-2-4-2-0--2--4-4-4-2-0-0--2-2-3-4-2-0--0-|
D|---------------------------2---------------0-|
A|---------------------------3---------------2-|
E|-------------------------------------------3-|

              D  C              G
Palavras de amor    jogadas ao vento
      D     C                     G
Sua imagem     não sai do meu pensamento
                      D    C                      G
Ninguém me tira essa dor        nem as marcas do tempo
                    D                      C
O que me falta é coragem   pra dizer a verdade
                G
E enfrentar o momento

            D                    C
Só queria dizer pra você que te amo.
             G                    D
E não vejo saída, nosso caso é marcado
               C                   G
Nosso amor é jurado  você é minha vida
               D                  C                   G
Vê se volta correndo pra mim sem você eu não durmo direito.
                      D                C
Quero estar em seus braços e ouvir de você
                     G
Te amo de qualquer jeito

Solo:
      G                   D                    C                        G
E|-------------7------------------7-7-7-------------------10---9---8--7---|
B|------8--10----10--8--8^10-10---------10--8--8----------12--11--10--8---|
G|---7-----------------------------------------9--------------------------|
D|------------------------------------------------------------------------|
A|------------------------------------------------------------------------|
E|------------------------------------------------------------------------|

  D
E|----------------------------------------7-7-7--------------------------|
B|----------------------------------------------10--8---8^10--10---------|
G|---7^9---7---------------------------7---------------------------------|
D|------------10--9--7------9--------------------------------------------|
A|----------------------10-----------------------------------------------|
E|-----------------------------------------------------------------------|

                C                           G
E|-7-7-7---------------------------7-----10-8-7--------------------------|
B|------10--8---8-----------7-8-10--------------10-8-7-------------------|
G|--------------9-------7-9----------------------------9-7---------------|
D|---------------------------------------------------------10-9-7--------|
A|----------------------------------------------------------------10-----|
E|-----------------------------------------------------------------------|


(repete tudo)
Compositor Jorge / Mateus
Colaboración y revision:
  • Vitor Ribeiro
  • Priscila Dayanne
115 reproducciones
    • ½ Tom
    • A
    • Bb
    • B
    • C
    • Db
    • D
    • Eb
    • E
    • F
    • F#
    • G
    • Ab
  • Adicionar à lista

    0 comentarios

    Mostrar mais comentários
    00:00 / 00:00
    outros vídeos desta música
    repetir qualidade Automático
    Outros vídeos desta música
    00:00 / 00:00
    Automático
    OK