Cifra Club

Castigo

Jorge & Mateus

Cifrado: Versão 2 (guitarra y guitarra eléctrica)
tono: C
Intro: C G Am F C G Am F G C
e|--------------------------------------3-----------3----1------------------
B|--------------------------------5-5-5---5-3-1-3/5---5---------------------
G|-----------5-5-----------7-7--5-------------------------------------------
D|---3/5-5-5------3/5-5-5---------------------------------------------------
A|--------------------------------------------------------------------------
E|--------------------------------------------------------------------------

e|-------------------------------------------------------------------------
B|----------------------------------10-8-6-5-5-----------------------------
G|-----------5-5-----------7-7--5-------------------------------------------
D|---3/5-5-5------3/5-5-5---------------------------------------------------
A|--------------------------------------------------------------------------
E|--------------------------------------------------------------------------

C
To sentindo raiva nesse seu olhar
                                G
Que jeito mais bobo de me castigar
F                                 C
Eu sei q fui grosso mais saiu assim
             Am                    G
É sempre que você não acredita em mim
             F       G                  C
E me manda embora dizendo q não rola mais

C
Sei que não sou santo, nunca fui um anjo, mais nao sou ruim
                                              G
E quando eu amo todo meu amor, quero ela só pra mim
F                            C
Quando você quer você me abandona
                   Am                G
Me deixa o pó do caco me manda pra lona
              F         G             C
Ai eu canto e bebo pra tentar te esquecer

G                                C
Eu já perdi o jogo, já perdi o norte
           Am                      G
Sei q no amor também não to com sorte
              F                      C
To roendo o toco to rindo pra não chorar
G                            C
Nessa indiferença paixão dividida 
            Am               G
Agora cada um segue a sua vida
              F             G           C
De hoje em diante e eu pra cá você pra lá
00:00 / 00:00
Otros videos de esta canción
Repetir
Otros videos de esta canción
Composición de Jorge
Colaboración y revisión:
  • gerson neto
86 exhibiciones
    • ½ Tono
    • A
    • Bb
    • B
    • C
    • Db
    • D
    • Eb
    • E
    • F
    • F#
    • G
    • Ab
  • Agregar a la lista
    00:00 / 00:00
    OK