Cifra Club

Aprenda

Chove, Chove

Jorge e Mateus

Tablatura: Principal (guitarra)
tono: B
[Refrão]

    B                   E5       F#4
E|----------------------------------------------------|
B|----------------------------------------------------|
G|-------8---------8--------9----------11-------------|
D|-----9---9-----9---9----9---9-----9------9----------|
A|----------------------7--------9--------------------|
E|--7---------7---------------------------------------|

    B         G#m      E5       F#4         B5(9)
E|------------------------------------------2---------|
B|------------------------------------------2---------|
G|-------8---------8-------9--------11------4---------|
D|-----9---9-----9---9---9---9----9----9----4---------|
A|------------11-------7--------9--------9--2---------|
E|--7-------------------------------------------------|

B5(9)               E
 Chove quando você some
        F#              B5(9)
Chove amor quando se esconde
       G#m         E
Chove só de te querer
        F#            B5(9)
Chove chove em mim você!

[Intro] B5(9)  E  F#  B5(9)  G#m  E  F#  B5(9)  F#

E|--------------4-------------------------------------|
B|--7-7-7-4-7-4-5-7-----------------------------------|
G|--4-4-4-4-4-4---4-----------------------------------|
D|----------------------------------------------------|
A|----------------------------------------------------|
E|----------------------------------------------------|

E|----------------------------------------------------|
B|-6h7-7-7-5-5-4-5-4----------------------------------|
G|-4---4-4-4-4-4-4-4----------------------------------|
D|----------------------------------------------------|
A|----------------------------------------------------|
E|----------------------------------------------------|

E|----------------------------------------------------|
B|--4--------4----5-----5----7-5-4---4----------------|
G|--4--4-4-4-4--4-4-------4--------6-4----------------|
D|-----4-4-4----4-----6--------------4----------------|
A|------------------7---------------------------------|
E|----------------------------------------------------|

E|----------------------------------------------------|
B|-4-5-6-7--------------------------------------------|
G|----------------------------------------------------|
D|---------4------------------------------------------|
A|----------------------------------------------------|
E|----------------------------------------------------|

[Primeira Parte]

B5(9)                 F#
     Achei que fosse fácil Amor 
C#m7           E             B5(9)
    mas foi difícil achar você
                  F#
Faltou só um pouquinho flor
C#m7           E           B5(9)
   Pra aquele beijo acontecer

         F#             C#m7
E sem motivo quer me achar
          E                B5(9)
Olha pro céu que eu vo tá lá
         F#          C#m7
Em cada gota que chover
  E
Amor molhar você

(A partir da segunda estrofe)

E|-14-x-x-14-x-x-14-x-x-------------------------------|
B|-12-x-x-12-x-x-12-x-x-------------------------------|
G|-11-x-x-11-x-x-11-x-x-------------------------------|
D|----------------------------------------------------|
A|----------------------------------------------------|
E|----------------------------------------------------|

E|-14-x-14-x-x-14-x-x---------------------------------|
B|-14-x-14-x-x-14-x-x---------------------------------|
G|-11-x-11-x-x-11-x-x---------------------------------|
D|----------------------------------------------------|
A|----------------------------------------------------|
E|----------------------------------------------------|

E|-12-x-12-x-x-12-x-12-11-----------------------------|
B|-14-x-14-x-x-14-x-------14-12-----------------------|
G|-13-x-13-x-x-13-x-----------------------------------|
D|----------------------------------------------------|
A|----------------------------------------------------|
E|----------------------------------------------------|

E|-14-x-x-14-x-x-14-x-x-------------------------------|
B|-12-x-x-12-x-x-12-x-x-------------------------------|
G|-11-x-x-11-x-x-11-x-x-------------------------------|
D|----------------------------------------------------|
A|----------------------------------------------------|
E|----------------------------------------------------|

E|-14-x-14-x-x-14-x-x---------------------------------|
B|-11-x-14-x-x-14-x-x---------------------------------|
G|-11-x-11-x-x-11-x-x---------------------------------|
D|----------------------------------------------------|
A|----------------------------------------------------|
E|----------------------------------------------------|

E|-12-x-12-x-x-12-x-12-11-----------------------------|
B|-14-x-14-x-x-14-x-12-12-----------------------------|
G|-13-x-13-x-x-13-x-----------------------------------|
D|----------------------------------------------------|
A|----------------------------------------------------|
E|----------------------------------------------------|

[Segunda Parte]

E|--11p7---11p7---11p7--------------------------------|
B|-------9------9-------------------------------------|
G|----------------------------------------------------|
D|----------------------------------------------------|
A|----------------------------------------------------|
E|----------------------------------------------------|

E|--12p9---12p9---12p9--------------------------------|
B|-------9------9-------------------------------------|
G|----------------------------------------------------|
D|----------------------------------------------------|
A|----------------------------------------------------|
E|----------------------------------------------------|

E|--11p7---11p7---11p7--------------------------------|
B|-------9------9-------------------------------------|
G|----------------------------------------------------|
D|----------------------------------------------------|
A|----------------------------------------------------|
E|----------------------------------------------------|

E|-11--11--11-----------------------------------------|
B|-12--12--12-----------------------------------------|
G|---------11-----------------------------------------|
D|----------------------------------------------------|
A|----------------------------------------------------|
E|----------------------------------------------------|

G#m                    C#m7  G#m
   Juro eu quero te tocar
                   E
Em seu corpo deslizar
  F#
Amor te ter!

[Refrão]

B5(9)                   E
     Chove quando você some
        F#              B5(9)
Chove amor quando se esconde
       G#m         E
Chove só de te querer
        F#            B5(9)
Chove Chove em mim você

B5(9)                   E
     Chove quando você some
        F#              B5(9)
Chove amor quando se esconde
       G#m         E
Chove só de te querer
        F#            B5(9)
Chove Chove em mim você!

    F#    E  
Iê,Iê,Iê,Iê
        F#            B5(9)
Chove Chove em mim você!

[Solo] B5(9)  E  F#  B5(9)  G#m  E  F#  B5(9)  F# 
       B5(9)  E  F#  B5(9)  G#m  E  F#  B5(9)  F# 

E|--------------4-------------------------------------|
B|--7-7-7-4-7-4-5-7-----------------------------------|
G|--4-4-4-4-4-4---4-----------------------------------|
D|----------------------------------------------------|
A|----------------------------------------------------|
E|----------------------------------------------------|

E|----------------------------------------------------|
B|-6h7-7-7-5-5-4-5-4----------------------------------|
G|-4---4-4-4-4-4-4-4----------------------------------|
D|----------------------------------------------------|
A|----------------------------------------------------|
E|----------------------------------------------------|

E|----------------------------------------------------|
B|--4--------4----5-----5----7-5-4---4----------------|
G|--4--4-4-4-4--4-4-------4--------6-4----------------|
D|-----4-4-4----4-----6-------------------------------|
A|------------------7---------------------------------|
E|----------------------------------------------------|

E|--------------4-------------------------------------|
B|--7-7-7-4-7-4-5-7-----------------------------------|
G|--4-4-4-4-4-4---4-----------------------------------|
D|----------------------------------------------------|
A|----------------------------------------------------|
E|----------------------------------------------------|

E|----------------------------------------------------|
B|-6h7-7-7-5-5-4-5-4----------------------------------|
G|-4---4-4-4-4-4-4-4----------------------------------|
D|----------------------------------------------------|
A|----------------------------------------------------|
E|----------------------------------------------------|

E|----------------------------------------------------|
B|--4--------4----5-----5----7-5-4---4----------------|
G|--4--4-4-4-4--4-4-------4--------6-4----------------|
D|-----4-4-4----4-----6--------------4----------------|
A|------------------7---------------------------------|
E|----------------------------------------------------|

E|----------------------------------------------------|
B|-4-5-6-7--------------------------------------------|
G|----------------------------------------------------|
D|---------4------------------------------------------|
A|----------------------------------------------------|
E|----------------------------------------------------|

[Primeira Parte]

B5(9)                   F#
     Achei que fosse fácil Amor
C#m7           E              B5(9)
    mas foi difícil achar você
                  F#
Faltou só um pouquinho Flor
C#m7           E             B5(9)
   pra aquele beijo acontecer

         F#             C#m7
E sem motivo quer me achar
          E                 B5(9)
Olha pro céu que eu vou tá lá
         F#          C#m7
Em cada gota que chover
  E
Amor molhar você

[Segunda Parte]

G#m                    C#m7 G#m
   Juro eu quero te tocar
                   E
Em seu corpo deslizar
  F#
Amor te ter!

[Refrão]

B5(9)               E
 Chove quando você some
        F#              B5(9)
Chove amor quando se esconde
       G#m         E
Chove só de te querer
        F#            B5(9)
Chove chove em mim você!

B5(9)               E
 Chove quando você some
        F#              B5(9)
Chove amor quando se esconde
       G#m         E
Chove só de te querer
        F#            B5(9)
Chove chove em mim você!

B5(9)               E
 Chove quando você some
        F#              B5(9)
Chove amor quando se esconde
       G#m         E
Chove só de te querer
        F#            B5(9)
Chove chove em mim você!

B5(9)               E
 Chove quando você some
        F#              B5(9)
Chove amor quando se esconde
       G#m         E
Chove só de te querer
        F#            B5(9)
Chove chove em mim você!

    F#    E   
Iê,Iê,Iê,Iê
  F#              B5(9)
Chove em mim você
    F#    E   
Iê,Iê,Iê,Iê
  F#              B5(9)
Chove em mim você
    F#    E   
Iê,Iê,Iê,Iê
  F#              B5(9)
Chove em mim você

[Final]

(Violão 1)

E|--------------------------------------------------|
B|--------------------------------------------------|
G|-9-8-6---8--8-------------------------------------|
D|-------8-9--9-------------------------------------|
A|--------------------------------------------------|
E|--------------------------------------------------|

(Violão 2)

E|--------------------------------------------------|
B|-9-7-----7-7--------------------------------------|
G|-----9-6-8-8--------------------------------------|
D|--------------------------------------------------|
A|--------------------------------------------------|
E|--------------------------------------------------|
Composição de Humberto Teixeira
321 reproducciones
  • Simplificar cifra
    • ½ Tono
    • A
    • Bb
    • B
    • C
    • Db
    • D
    • Eb
    • E
    • F
    • F#
    • G
    • Ab
  • Adicionar à lista

    0 comentarios

    Ver todos os comentários
    00:00 / 00:00
    outros vídeos desta música
    repetir qualidade Automático
    Outros vídeos desta música
    00:00 / 00:00
    Automático
    Capítulos
    • Início
    • Tocando a música
    • Acordes da introdução
    • Tocando introdução
    • Ensinando ritmo da intro
    • Ensinando ritmo padrão
    • Ensinando dedilhado intro (violão solo)
    • Ensinando solo intro (parte 1 e 2)
    • Ensinando solo intro (parte 3 e 4)
    • Acordes da primeira parte
    • Tocando primeira parte
    • Ensinando primeira parte (violão solo)
    • Ensinando primeira parte (parte 2)
    • Acordes da segunda parte
    • Tocando segunda parte
    • Ensinando segunda parte (violão solo)
    • Tocando refrão
    • Ensinando ritmo do refrão
    • Tocando solo final
    • Ensinando variação do solo final (solo intro)
    • Tocando treco final
    • Ensinando frase
    • Ensinando frase (violão solo)
    • Encerramento
    OK