Cifra Club

Clichê

Jorge & Mateus

Cifrado: Completa (guitarra y guitarra eléctrica)
tono: Bb
Intro: A# F Gm D#9 A# F

E|-----------------------|
A|-----------------------|
D|-----------------------|
G|-/10-10-7-7-5-5-3-3/5~-| 3x
B|-----------------------|
E|-----------------------|

A#                   F
Criei canções e melodias pra te conquistar,
Gm                 D#9
Em cada verso, poesia para me declarar.
Gm                     A#     F
Mas só palavras não vão traduzir
D#9                           D#m
O que é te olhar nos olhos e te ver sorrir.

A#                     F
E se eu parecer um bobo você pode rir,
Gm                        D#9
É que esse seu jeito manhoso me deixou assim,
Gm                   A#    F
Completamente louco por você,
D#9                        D#m        F9
Fazendo minhas rimas só pra te dizer, ieeeeee

Refrão

A#                                   F
Você é o primeiro pensamento do meu dia,
                                    Gm
Se eu não te vejo quase morro de agonia.
                                    D#9
Sou dependente desse amor, seu beijo vicia,

Eu quero todo dia!

A#                        F
A noite cai, o meu sonho é você,
                            Gm
Dizer te amo já tá virando clichê.
                               D#9
Mas eu tô repetindo só pra você saber,

Que eu adoro amar você!

 (A# F Gm D#9)

E|-----------------------|--------------------------------|
A|-----------------------|--------------------------------|
D|-----------------------|----------------------------5-6-|
G|-10-10-7-7-5-5-3-3/5~--|-10-10-7-7-5-5-3-3/5~-5-6-8-----|
B|-----------------------|--------------------------------|
E|-----------------------|--------------------------------|

A#                     F
E se eu parecer um bobo você pode rir,
Gm                           D#9
É que esse seu jeito manhoso me deixou assim,
Gm                   A#     F
Completamente louco por você,
D#9                    D#m             F9
Fazendo minhas rimas só pra te dizer ieeeeee

(Refrão 2x)

Solo
E|-------------------------------------6p5----5-6-8~----------10-11-13~/--|
A|-6---6---6---6--8--6---6---6---6--8------6------------11-13-------------|
D|---7---7---7---------7---7---7------------------------------------------|
G|------------------------------------------------------------------------|
B|------------------------------------------------------------------------|
E|------------------------------------------------------------------------|

Solo (base): (A# F D#9 F9)

(Refrão)
00:00 / 00:00
Otros videos de esta canción
Repetir
Otros videos de esta canción
Composición de Gabriel Agra
Colaboración y revisión:
  • Bruno Zagheti
15 exhibiciones
    • ½ Tono
    • A
    • Bb
    • B
    • C
    • Db
    • D
    • Eb
    • E
    • F
    • F#
    • G
    • Ab
  • Agregar a la lista
    00:00 / 00:00
    OK