Cifra Club

Aprenda

Coisas de Quem Ama

Jorge e Mateus

Tablatura: Principal (guitarra)
tono: F#m
Intro: A9  G9  F#m  F  A9  D

Solo Intro:

Parte 1

E|------------------------------------------------------|
B|-----2h3-5-5~--2h3-2------2----------1----------------|
G|-2-4-----------------4-4----5\4-2-2----5\4-2-2---2----|
D|-----------------------------------------------2------|
A|------------------------------------------------------|
E|------------------------------------------------------|

Parte 2

E|------------------------------------------------------|
B|-----5-5/7--------------------------------------------|
G|-4/6--------------------------------------------------|
D|------------------------------------------------------|
A|------------------------------------------------------|
E|------------------------------------------------------|

Dedilhado Intro:

Parte 1

    A9       G9      F#m       F
E|-------0----------------------------------|
B|-------2--------0--------2----------------|
G|-----4--------2--------2----------2-------|
D|---2--------0--------4----------3---------|
A|-0----------------------------3-----------|
E|----------3--------2--------1-------------|

Parte 2

    A9         D
E|---------0--2-----------------------------|
B|-------2----3-----------------------------|
G|-----4------2-----------------------------|
D|---2--------0-----------------------------|
A|-0----------------------------------------|
E|------------------------------------------|

Primeira Estrofe:

 A9     D9                A9
Lembra,    ou procura não esquecer
E
  De tudo que eu já fiz 
         D9                A9        E
E ainda posso fazer por você, por você

Dedilhado Primeira Estrofe:

Parte 1

    A9   D9   A9
E|-0----0----0------------------------------|
B|-0----3----0------------------------------|
G|-2----2----2------------------------------|
D|------0-----------------------------------|
A|-0---------0------------------------------|
E|------------------------------------------|

Parte 2

    E        D9       A9       E
E|-------0--------0--------0--------0-------|
B|-----0--------3--------2--------0---------|
G|---1--------2--------2--------1-----------|
D|----------0-------------------------------|
A|-------------------0----------------------|
E|-0--------------------------0-------------|

Segunda Estrofe:

 A9
Lembra que foi eu
                    A9/C#
Não esquece que fui eu
     D6(9)
Que te amou demais
                            F#m7(11)
Desde o dia em que te conheceu

Sempre te fez sorrir
E
Admite eu sei 
        D              A9/C#  Bm7
Que também sente falta

Dedilhado Segunda Estrofe:

Parte 1

    A9          A9/C#  D6(9)
E|-0---0---0----0------0---0---0---0--------|
B|-0---0---0----0------0---0---0---0--------|
G|---2---2---2----2------2---2---2---2------|
D|---------------------0--------------------|
A|-0------------4---------------------------|
E|------------------------------------------|

Parte 2

   F#m7(11)          E        D
E|-0----------------0---0----2---2----------|
B|-0---0---0---0----0---0----3---3----------|
G|---2---2---2---2----2---2----0---0--------|
D|---------------------------0--------------|
A|------------------------------------------|
E|-2----------------0-----------------------|

Parte 3

    D   A9/C#  Bm7
E|-2-----0----------------------------------|
B|-3-----0-----3----------------------------|
G|-2-----2-----2----------------------------|
D|-0----------------------------------------|
A|-------4-----2----------------------------|
E|------------------------------------------|

Terceira Estrofe:

 A9                              A9/C#
Dos dias difíceis, da falta de grana
 D6(9)
De pipoca e filme todo fim de semana
   F#m               F5+
Eu ia de comédia, você sempre de drama
A/E                  Ebm7(5-)
Um colchão na sala, nós dois de pijama
Bm7         A9/C#  D6(9)
    Coisas de quem ama
                  A9  E
Coisas de quem ama

Dedilhado Terceira Estrofe:

Parte 1

    A9          A9/C#  D6(9)
E|-0---0---0----0------0---0---0---0--------|
B|-0---0---0----0------0---0---0---0--------|
G|---2---2---2----2------2---2---2---2------|
D|---------------------0--------------------|
A|-0------------4---------------------------|
E|------------------------------------------|

Parte 2

    F#m     F5+      A/E      Ebm7(5-)
E|-2---2----1---1----0--------2---2---------|
B|-2---2----2---2----2---2----2---2---------|
G|---2---2----2---2----2---2----2---2-------|
D|-4--------3--------2--------1-------------|
A|------------------------------------------|
E|------------------------------------------|

Parte 3

   Bm7     A9/C#  D6(9)  A9       E
E|---------0------0-----------0--0--2/4-----|
B|-2-3-----2------0-----------0--0----------|
G|-2---2---2------2---------2----1--2/4-----|
D|----------------0-------2-----------------|
A|-2-------4------------0-------------------|
E|-------------------------------0----------|
                  ↑
Refrão:
    
      A9                   G
Mas o último filme não chegou ao final
   F#m                   F9
A gente apagou bem na bri__ga do casal
     A9      D9                   E
E depois de discutir vários assuntos
          F9
Deram um beijo de amor
G
  E terminaram
    F9           G
Um beijo de amor
          F9
Deram um beijo
G
  E terminaram juntos

Repete Intro: A9  G9  F#m  F  A9  D

Segunda Estrofe:

 A9
Lembra que foi eu
                    A9/C#
Não esquece que fui eu
     D6(9)
Que te amou demais
                            F#m7(11)
Desde o dia em que te conheceu

Sempre te fez sorrir
E
Admite eu sei 
        D              A9/C#  Bm7
Que também sente falta

Terceira Estrofe:

 A9                              A9/C#
Dos dias difíceis, da falta de grana
 D6(9)
De pipoca e filme todo fim de semana
   F#m               F5+
Eu ia de comédia, você sempre de drama
A/E                  Ebm7(5-)
Um colchão na sala, nós dois de pijama
Bm7         A9/C#  D6(9)
    Coisas de quem ama
                  A9  E
Coisas de quem ama

Refrão:
    
      A9                   G
Mas o último filme não chegou ao final
   F#m                   F9
A gente apagou bem na bri__ga do casal
     A9      D9                   E
E depois de discutir vários assuntos
          F9           G
Deram um beijo de amor
    F9           G
Um beijo de amor
          F9           G
Deram um beijo de amor

Refrão:
    
      A9                   G
Mas o último filme não chegou ao final
   F#m                   F9
A gente apagou bem na bri__ga do casal
     A9      D9                   E
E depois de discutir vários assuntos
          F9           G
Deram um beijo de amor
    F9           G
Um beijo de amor
          F9
Deram um beijo de amor
G                     A7M(9)  D7M
  E terminaram juntos

Final:

    A7M(9)       D7M
E|-----------0---2--------------------------|
B|-------0-2-----2--------------------------|
G|-----1---------2--------------------------|
D|---2-----------0--------------------------|
A|-0----------------------------------------|
E|------------------------------------------|
Composição de Dudu Borges / Jorge / Matheus Aleixo
606 reproducciones
  • Simplificar cifra
    • ½ Tono
    • Am
    • Bbm
    • Bm
    • Cm
    • C#m
    • Dm
    • Ebm
    • Em
    • Fm
    • F#m
    • Gm
    • G#m
  • Adicionar à lista

    0 comentarios

    Ver todos os comentários
    00:00 / 00:00
    outros vídeos desta música
    repetir qualidade Automático
    Outros vídeos desta música
    00:00 / 00:00
    Automático
    Capítulos
    • Tocando a Música
    • Dicas iniciais / Equipamentos
    • Acordes da Introdução
    • Tocando Introdução
    • Ensinando Introdução Parte 1 de 2
    • Ensinando Introdução Parte 2 de 2
    • Dicas Primeira Estrofe
    • Tocando Primeira Estrofe
    • Ensinando Primeira Estrofe - Parte 1 de 2
    • Ensinando Primeira Estrofe - Parte 2 de 2
    • Dicas Segunda Estrofe
    • Tocando Segunda Estrofe
    • Ensinando Segunda Estrofe - Parte 1 de 3
    • Ensinando Segunda Estrofe - Parte 2 de 2
    • Ensinando Segunda Estrofe - Parte 3 de 3
    • Dicas Terceira Estrofe
    • Tocando Terceira Estrofe
    • Ensinando Terceira Estrofe - Parte 1 de 3
    • Ensinando Terceira Estrofe - Parte 2 de 3
    • Ensinando Terceira Estrofe - Parte 3 de 3
    • Dicas Refrão:
    • Tocando Refrão:
    • Ensinando Refrão:
    • Dicas Segundo Refrão
    • Tocando Segundo Refrão
    • Ensinando Segundo Refrão
    • Dicas Refrão Final
    • Tocando Refrão Final
    • Ensinando Refrão Final
    • Dicas Solo
    • Tocando Solo
    • Ensinando Solo - Parte 1 de 2
    • Ensinando Solo - Parte 2 de 2
    • Dicas Finais/ Encerramento
    • Ficha Técnica / Erros de Gravação
    OK