Cifra Club

De Tanto Te Querer

Jorge & Mateus

Cifrado: Principal (guitarra y guitarra eléctrica)
tono: D
[Intro] D9  D7M  Bm7 G5

E|----5----5------5----5------5----5-------3----5-----|
B|----3-----3-----2------2----3-----3------3-----3----|
G|----2------2----2-------2---2------2-----2------2---|
D|----0--0--------2--0--------4--4---------0--0-------|
A|----x-----------x-----------2------------x----------|
E|----------------------------------------------------|

[Primeira Parte] 

D                      A/C#
  Larga tudo e vem correndo
Bm                     E7
   Vem matar minha vontade
G                            Bm A
  Já faz tempo que eu tô sofrendo
E7                       A4  A
   Mereço um pouco de felicidade

D                      A/C#
  Larga tudo e vem correndo
Bm                             E7
   Pra eu mergulhar no teu sorriso
G                     Bm7  A
  Me arranca desse infer__no 
E7                     A4  A
   Me leva pro seu paraí__so

[Segunda Parte] 

G                            Bm7                  E7   
  Eu não desisto do que eu quero mas não me desespero
      G   A
Te espero
D                          E7        
  Na tarde quente ou madrugada fria
 G                     A
Na tristeza ou na alegria

[Solo] 

E|----------------------------------------------------|
B|------------------------5---------------------------|
G|-------------2--4--4/6-----6\4--2--4--2-------------|
D|----0--2--4------------------------------2--0-------|
A|----------------------------------------------------|
E|----------------------------------------------------|

[Refrão] 

D                    Em                      G
  Ficar sozinho não rola mas amor não se implora
 A               D
Nem se joga fora
                    Em                       G
O amor a gente conquista e não há quem desista
 A                 D
Se e o coração chora

              A/C#       Em
Chora com vontade de te ver
              G    A    D
Chora com saudade de você
               A/C#             Em
Chora às vezes eu nem sei por que
             G     A     D
Deve ser te tanto te querer
 A/C#  E7     G      A     D
Iê    iê, de tanto amar você

[Solo]  D  Em  G  A 
   
E|-----------2---------------------3p2--0-------------|
B|-------3-5---5--3-5-3-5-3-5-3-3----------5b7r5--3-3-|
G|-2-2-2----------------------------------------------|
D|----------------------------------------------------|
A|----------------------------------------------------|
E|----------------------------------------------------|

[Segunda Parte] 

G                            Bm7                  E7   
  Eu não desisto do que eu quero mas não me desespero
      G   A
Te espero
D                          E7        
  Na tarde quente ou madrugada fria
 G                     A
Na tristeza ou na alegria

E|----------------------------------------------------|
B|------------------------5---------------------------|
G|-------------2--4--4/6-----6\4--2--4--2-------------|
D|----0--2--4------------------------------2--0-------|
A|----------------------------------------------------|
E|----------------------------------------------------|

[Refrão]

D                    Em                      G
  Ficar sozinho não rola mas amor não se implora
 A               D
Nem se joga fora
                    Em                       G
O amor a gente conquista e não há quem desista
 A                 D
Se e o coração chora

D                    Em                      G
  Ficar sozinho não rola mas amor não se implora
 A               D
Nem se joga fora
                    Em                       G
O amor a gente conquista e não há quem desista
 A                 D
Se e o coração chora

              A/C#       Em
Chora com vontade de te ver (riff 1)
              G    A9   D
Chora com saudade de você   (riff 2)
               A/C#             Em
Chora às vezes eu nem sei por que (riff 1)
             G     A9    D            A/C#        E7
Deve ser te tanto te querer (riff 2) Iêêêêêêêê iêêêêê, (riff 3)
    G      A9    D           A/C#       E7
De tanto amar você (riff 4) Iêêêêêêêê iêêêêê (riff 3)

E|------2-5-2-----------------------------------------|
B|--3-5-------5-3-3-----------------------------------|
G|----------------------------------------------------|
D|----------------------------------------------------|
A|----------------------------------------------------|
E|----------------------------------------------------|

Riff 1
E|----------------------------------------------------|
B|-3-3-3-3-2---2-2-3----------------------------------|
G|------------4---------------------------------------|
D|----------------------------------------------------|
A|----------------------------------------------------|
E|----------------------------------------------------|

Riff 2
E|----------------------------------------------------|
B|-3-3-3-3-2h3-2-3-2-3--------------------------------|
G|----------------------------------------------------|
D|----------------------------------------------------|
A|----------------------------------------------------|
E|----------------------------------------------------|

Riff 3
E|----------------------------------------------------|
B|-3h5---3h5-3----------------------------------------|
G|----------------------------------------------------|
D|----------------------------------------------------|
A|----------------------------------------------------|
E|----------------------------------------------------|

Riff 4
E|----------------------------------------------------|
B|-3-2h3-2-3-2-3--------------------------------------|
G|----------------------------------------------------|
D|----------------------------------------------------|
A|----------------------------------------------------|
E|----------------------------------------------------|
00:00 / 00:00
Otros videos de esta canción
Repetir
Otros videos de esta canción
Composición de Jorge Barcelos
7.110 exhibiciones
  • Simplificar cifrado
    • ½ Tono
    • A
    • Bb
    • B
    • C
    • Db
    • D
    • Eb
    • E
    • F
    • F#
    • G
    • Ab
  • Agregar a la lista
    00:00 / 00:00
    Capítulos
    • Início
    • Acorde da introdução
    • Tocando introdução
    • Ensinando introdução
    • Tocando introdução devagar
    • Acordes da primeira parte
    • Tocando primeira parte
    • Ritmo da primeira parte
    • Passagem do ritmo na primeira parte
    • Ensinando passagem da primeira parte
    • Acordes do pré-refrão
    • Tocando pré-refrão
    • Ritmo do pré-refrão
    • Passagem do ritmo no pré-refrão
    • Acordes do refrão
    • Tocando refrão
    • Passagem do ritmo no refrão
    • Tocando solo do meio da música
    • Ensinando solo
    • Tocando solo devagar
    • Encerramento
    OK