Cifra Club

Eu Quero Ser Teu Sol

Jorge e Mateus

Tablatura: Principal
reproducciones 455
Tono: C
Intro 2x: F C Am G

Solo:
E|-----------------------------------------------------------|
B|--5-5~--6/5-5~-6/5-6/5-------------------------------------|
G|-----------------------7-5-7-5~-5-5-7-5-5~-7-5-7-5-4-------|
D|------------------------------------------------------7-5~-|
A|-----------------------------------------------------------|
E|-----------------------------------------------------------|

E|-----------------------------------------------------------|
B|--5-5~--6/5-5~--6-5-6/8~-6-5-------------------------------|
G|------------------------------7-5-5~-7-5-5~-7-5-7-5-4------|
D|-------------------------------------------------------7-5~|
A|-----------------------------------------------------------|
E|-----------------------------------------------------------|

F                   C
Inesquecível foi o seu olhar
Am                     G
Meu coração só quer você pra amar
F                          C
Imprevisível seu jeito de ser
Am                       G
Eu sem você não da pra imaginar

            Am
Eu quero você descobrindo os meus sentidos
G                   F            C     G
Revelando os motivos do meu pensamento
           Am
Eu quero você sussurrando aos meus ouvidos
G
Refazendo os caminhos
F              G
Do nosso momento

Refrão:
Am        F          C          G
Eu quero ser teu sol, eu quero ser teu ar
Am      F      C  G
Tua respiração
Am       F        C         G
A fonte desse amor veio do seu olhar
Am          F      C  G
Direto pro coração

(Intro)

            Am
Eu quero você descobrindo os meus sentidos
G                   F            C     G
Revelando os motivos do meu pensamento
           Am
Eu quero você sussurrando aos meus ouvidos
G
Refazendo os caminhos
F              G
Do nosso momento

(Refrão 2x)

(Intro)
Acordes para:
    Colaboración y revision:

    0 comentarios

      mostrar más comentarios

      ¿Conseguiste tocar?

      51tocaron0aún no

      ¡Graba un vídeo tocando Eu Quero Ser Teu Sol y envianoslo!

      00:00 / 00:00
      outros vídeos desta música
      repetirqualidadeautomática
      Outro vídeos desta música
        00:00 / 00:00
        automática
        OK