Cifra Club

Falando Sério

Jorge & Mateus

Cifrado: Principal (guitarra y guitarra eléctrica)
tono: G
Intro: C  D  Em

E|------------------8---12-10------------------------------------|
B|----8-7--------------------------8-7--------------7-8/10-8p7p8-|
G|-------9-7/9---------------------------9-7/9--7-9--------------|
D|---------------------------------------------------------------|
A|---------------------------------------------------------------|
E|---------------------------------------------------------------|

E|------------------8---12-10------------------------------------|
B|-8-7-----------------------------8-7---------7--10/8-----------|
G|-------9-7/9-------------------------9-7/9------11/9-----------|
D|---------------------------------------------------------------|
A|---------------------------------------------------------------|
E|---------------------------------------------------------------|

                C                 D
Você não tem limite você não tem hora
                Em
Liga pra brincar com o meu sentimento

Violão 2:
E|---------------|
B|---------------|
G|--12-12--11-11-|
D|--14-14--12-12-|
A|---------------|
E|---------------|
              C                D
Faz proposta que sempre me apavora
                Em                      Em7
Sabe o que é amar e tá perdendo tempo

Violão 2:
E|-------------------------|
B|-------------------------|
G|--12-12-12-12-12---11-11-|
D|--14-14-14-14-14---12-12-|
A|-------------------------|
E|-------------------------|

            C                    D
Você me provoca eu entro no seu jogo
              Em                Em7
Sabe dar as cartas sabe me ganhar
           C                  D
Me coloca sempre em prova de fogo
                    Em                  Em7
É tudo o que eu preciso pra me entregar

Refrão 2x:
             C                  D
Pare de uma vez com essa brincadeira
         Em
Chega de bobeira eu tô falando sério
                C                      D
Preciso desse amor, te amar a noite inteira
            Em                        Em7
Se você me quer saiba eu também te quero

Intro: ( C  D  Em )

                C                 D
Você não tem limite você não tem hora
              Em
Liga pra brincar com o meu sentimento
              C                D
Faz proposta que sempre me apavora
             Em                       Em7
Sabe o que é amar e tá perdendo tempo

            C                    D
Você me provoca eu entro no seu jogo
              Em                Em7
Sabe dar as cartas sabe me ganhar
           C                  D
Me coloca sempre em prova de fogo
                    Em                  Em7
É tudo o que eu preciso pra me entregar

Refrão 2x:
             C                  D
Pare de uma vez com essa brincadeira
         Em
Chega de bobeira eu tô falando sério
                C                      D
Preciso desse amor, te amar a noite inteira
            Em                        Em7
Se você me quer saiba eu também te quero

Solo: (parte 2 da intro)

Refrão 2x:
             C                  D
Pare de uma vez com essa brincadeira
         Em
Chega de bobeira eu tô falando sério
                C                      D
Preciso desse amor, te amar a noite inteira
            Em                        Em7
Se você me quer saiba eu também te quero
00:00 / 00:00
Otros videos de esta canción
Repetir
Otros videos de esta canción
Compositor no encontrado.
Colaboración y revisión:
  • LUIS
516 exhibiciones
    • ½ Tono
    • A
    • Bb
    • B
    • C
    • Db
    • D
    • Eb
    • E
    • F
    • F#
    • G
    • Ab
  • Agregar a la lista
    00:00 / 00:00
    OK