Cifra Club

Idas e Voltas

Jorge & Mateus

Cifrado: Principal (guitarra y guitarra eléctrica)
tono: C
Introdução: Dm7  C  Dm  F  C

E|------8-10/12-10~-------------------------|
B|----8-----------------6/8-8-8--6--5-6/8---|
G|----------------------7/9-9-9--7--5-7/9---|
D|------------------------------------------|
A|------------------------------------------|
E|------------------------------------------|
                         ↓  ↑ ↓  ↑  ↓  ↓

E|-----12/13-12-----------10/12-10----------|
B|---------------13--10---------------------|
G|------------------------------------------|
D|------------------------------------------|
A|------------------------------------------|
E|------------------------------------------|

E|--------------------------------------------------------|
B|--------------------------------------------------------|
G|-----8p7--8p7--8p7--------------------------------------|
D|-------------------10-8-7-10~---------------------------|
A|------------------------------10-8-7-10~----------------|
E|-----------------------------------------8-6-5-8~---8/--|

                      G/D
Se eu não te fizer chorar
C                     G/D
Se eu não te fizer sofrer
                    F                 C
Fica comigo essa noite o tempo que quiser
               G
Enquanto se sentir bem

Dm                F       C    C/D           G/D
Adoro quando você fica, fica, fica e vai ficando
Dm      F          C
Me desacostumando a ficar sem
                  Dm               F
Odeio quando você vai, vai, vai, vai
     C          G/D
E demora pra voltar
                          Dm         F
Eu nunca sei se a gente só tá revivendo
       C           G
Ou tentando recomeçar

Refrão:
               Dm          F
Toda história de amor é assim
            C
Tem idas e voltas
                           Dm           F
Mas se nós dois chegarmos juntos no fim
             C
Nada mais importa

              Dm           F
Toda história de amor é assim
            C
Tem idas e voltas
                            Dm7
Mas tem que ter final feliz
                F                C
Mesmo sendo escrita por linhas tortas

Riff
                  Dm             C        G/D
Adoro quando você fica, fica, fica e vai ficando
Dm      F                 C
Me desacostumando a ficar sem
                  Dm               F
Odeio quando você vai, vai, vai, vai
     C          G/D
E demora pra voltar
                           Dm7         F
Eu nunca sei se a gente só tá revivendo
       C           G
Ou tentando recomeçar

Refrão 2x:
               Dm          F
Toda história de amor é assim
            C
Tem idas e voltas
                           Dm           F
Mas se nós dois chegarmos juntos no fim
             C
Nada mais importa

              Dm          F
Toda história de amor é assim
            C
Tem idas e voltas
                        Dm
Mas tem que ter final feliz
                F                C
Mesmo sendo escrita por linhas tortas

Riff - Final
00:00 / 00:00
Otros videos de esta canción
Repetir
Otros videos de esta canción
Composición de Jorge Alves Barcelos
Colaboración y revisión:
539 exhibiciones
    • ½ Tono
    • A
    • Bb
    • B
    • C
    • Db
    • D
    • Eb
    • E
    • F
    • F#
    • G
    • Ab
  • Agregar a la lista
    00:00 / 00:00
    OK