Cifra Club

Lance Individual

Jorge & Mateus

Cifrado: Principal (guitarra y guitarra eléctrica)
tono: F
[Intro] Gm  Bb9

[Parte 1 De 2]

E|-----------------------------------------------------|
B|-3/6-6-6-6-6-6h8-6-5-----------------5/6-6-6-6-6-6-5-|
G|----------------------5-5-5-5---5h7--6/7-7-7-7-7-7-5-|
D|------------------------------7----------------------|
A|-----------------------------------------------------|
E|-----------------------------------------------------|

[Parte 2 De 2]

E|-----------------------------------------------------|
B|-5/6-5---6-8-10p8-6~---------------------------------|
G|-6/7-5-----------------------------------------------|
D|-----------------------------------------------------|
A|-----------------------------------------------------|
E|-----------------------------------------------------|

[Primeira Parte]

F                 C9
  Já namorou  noivou
                    Gm
Já morou junto  largou
                Bb9     
Já conheci sua mãe  
                 F
O seu pai  seu avô
                   C9
Já adotamos um cachorro
                      Gm
Já teve a senha um do outro
                    Bb9
E não dá nem pra negar
                               C9
Que os nossos pega é de outro mundo

[Pré-Refrão]

       Bb9    
Mas a gente 
       C9     F
Já tentou de tudo

[Refrão]

                      C9  
A gente já tentou de tudo 
              Gm
Pra ser um casal
               
Mas já saquei que o nosso 
 Bb9
Lance é individual
F
  Cê na sua
       C9
Eu na minha

Deu saudade?
     Gm
Campainha
                  Bb9
Eu entro no seu quarto
                      F
Mas não entro na sua vida

                      C9  
A gente já tentou de tudo 
              Gm
Pra ser um casal
               
Mas já saquei que o nosso 
 Bb9
Lance é individual
F
  Cê na sua
       C9
Eu na minha

Deu saudade?
     Gm
Campainha
                  Bb9
Eu entro no seu quarto
                       
Mas não entro na sua vida

[Solo] C9  Gm  Bb9
       F  C9  Gm  Bb9

[Parte 1 De 3]

E|-----------------------------------------------------|
B|-3/6-6-6-6-6-6h8-6-5-----------------5/6-6-6-6-6-6-5-|
G|----------------------5-5-5-5---5h7--6/7-7-7-7-7-7-5-|
D|------------------------------7----------------------|
A|-----------------------------------------------------|
E|-----------------------------------------------------|

[Parte 2 De 3]

E|---------------------------------6p5-----------------|
B|-5/6-5--------------------------------6-6h8----------|
G|-5/7-5-------------------5-5h7-----------------------|
D|----------5-5h7--5h7-7-7-------5---------------------|
A|--------8--------------------------------------------|
E|-----------------------------------------------------|

[Parte 3 De 3]

E|-----------------------------------------------------|
B|-----11-10/11-10-6h8-6~------------------------------|
G|-5/7-------------------------------------------------|
D|-----------------------------------------------------|
A|-----------------------------------------------------|
E|-----------------------------------------------------|

[Primeira Parte]

F                 C9
  Já namorou  noivou
                    Gm
Já morou junto  largou
                Bb9     
Já conheci sua mãe  
                 F
O seu pai  seu avô
                   C9
Já adotamos um cachorro
                      Gm
Já teve a senha um do outro
                    Bb9
E não dá nem pra negar
                               C9
Que os nossos pega é de outro mundo

[Pré-Refrão]

       Bb9    
Mas a gente 
       C9     F
Já tentou de tudo

[Refrão]

                      C9  
A gente já tentou de tudo 
              Gm
Pra ser um casal
               
Mas já saquei que o nosso 
 Bb9
Lance é individual
F
  Cê na sua
       C9
Eu na minha

Deu saudade?
     Gm
Campainha
                  Bb9
Eu entro no seu quarto
                      F
Mas não entro na sua vida

                      C9  
A gente já tentou de tudo 
              Gm
Pra ser um casal
               
Mas já saquei que o nosso 
 Bb9
Lance é individual
F
  Cê na sua
       C9
Eu na minha

Deu saudade?
     Gm
Campainha
                  Bb9
Eu entro no seu quarto
                      F   C9  Gm
Mas não entro na sua vida
                  Bb9
Eu entro no seu quarto
                      F   C9  Gm
Mas não entro na sua vida
                  Bb9
Eu entro no seu quarto
                      
Mas não entro na sua vida

[Final] F

E|-----------------------------------------------------|
B|-3/6-6-6-6-6-6h8-6-6---------------------------------|
G|-----------------------------------------------------|
D|-----------------------------------------------------|
A|-----------------------------------------------------|
E|-----------------------------------------------------|
00:00 / 00:00
Otros videos de esta canción
Repetir
Otros videos de esta canción
Composición de Lari Ferreira / Diego Silveira / Junior Pepato / Rafa Borges
Colaboración y revisión:
  • Gustavo Vaz
  • Mauricio Tureck
1.149 vistas
    • ½ Tono
    • A
    • Bb
    • B
    • C
    • Db
    • D
    • Eb
    • E
    • F
    • F#
    • G
    • Ab
  • Agregar a la lista

    0 comentarios

    Ver todos los comentarios
    00:00 / 00:00
    OK