Cifra Club

Aprenda

Louca Paixão

Jorge e Mateus

Tablatura: Principal (guitarra)
Tom: F#
(intro) 

|------------------------------------------------------------------
|---4-6-6h7-6-4------------4---------------------------------------
|-6--------------6------------6-5-3--------------------------------
|--------------------6-6-------------------------------------------
|------------------------------------------------------------------
|------------------------------------------------------------------
                                                                      (2x)
|------------------------------------------------------------------
|------------------------------------------------------------------
|------6-5-3----------------------------------------3-5-6----------
|-6-6---------6-6-6/8-6------3-4-3-------3-4-6---------------------
|------------------------6-----------6-----------------------------
|------------------------------------------------------------------

 C#             G#
Você quer voltar, quer me convencer
 C#              G#
De te perdoar, mas perdoar o quê?
 C#            B
Eu já me esqueci do que você me fez
 F#             D#m                G#
Mas eu não consigo mesmo te odiar

 C#              G#
O meu corpo pede pra sentir o seu
C#                G#
Minha boca pede por um beijo teu
C#             B
Eu já não discuto com meu coração
 F#                 D#m                 G#
E outra vez me entrego pra essa paixão

 C#       F#              G#
Ah, esse amor é a minha mania
               F#                 G#
De noite e de dia eu só sei te amar
       F#         G#
Eu só quero te amar
 C#        F#                   G#
Ah, esse amor já ficou no meu peito
                 F#                        G#
E não tem outro jeito, eu não sei dizer não
       D#m                 G#
Quando você vem atrás de mim
           D#m              C# G#
Vem sabendo que me tem na mão

C#          F#            G#
Ah, esse amor é a minha mania
               F#               G#
De noite e de dia eu só sei te amar
        F#         G#
Eu só quero te amar
 C#        F#                    G#
Ah, esse amor já ficou no meu peito
               F#                         G#
E não tem outro jeito, eu não sei dizer não
 D#m                      G#
Quando você vem atrás de mim
      F#                    G#                 C#
Não resisto à essa louca paixão

(intro 1x)

C#              G#
O meu corpo pede pra sentir o seu
C#                G#
Minha boca pede por um beijo teu
C#             B
Eu já não discuto com meu coração
 F#                 D#m                 G#
E outra vez me entrego pra essa paixão

 C#       F#              G#
Ah, esse amor é a minha mania
               F#                 G#
De noite e de dia eu só sei te amar
       F#         G#
Eu só quero te amar
 C#        F#                   G#
Ah, esse amor já ficou no meu peito
                 F#                        G#
E não tem outro jeito, eu não sei dizer não
       D#m                 G#
Quando você vem atrás de mim
           D#m              C# G#
Vem sabendo que me tem na mão

C#          F#            G#
Ah, esse amor é a minha mania
               F#               G#
De noite e de dia eu só sei te amar
        F#         G#
Eu só quero te amar
 C#        F#                    G#
Ah, esse amor já ficou no meu peito
               F#                         G#
E não tem outro jeito, eu não sei dizer não
 D#m                      G#
Quando você vem atrás de mim
      F#                    G#                 C#
Não resisto à essa louca paixão
Compositor luan
Colaboración y revision:
  • luan braga
62 reproducciones
    • ½ Tom
    • A
    • Bb
    • B
    • C
    • Db
    • D
    • Eb
    • E
    • F
    • F#
    • G
    • Ab
  • Adicionar à lista

    0 comentarios

    Mostrar mais comentários
    00:00 / 00:00
    outros vídeos desta música
    repetir qualidade Automático
    Outros vídeos desta música
    00:00 / 00:00
    Automático
    OK