Cifra Club

Maneira Errada

Jorge & Mateus

Cifrado: Principal (guitarra y guitarra eléctrica)
tono: B (con acordes en la forma de G) Capotraste en 4ª casa
[Intro] G  D  
        Am  C  D

E|------------------------------------------|
B|------------------------------------------|
G|------------------------------------------|
D|------------------------------------------|
A|-2-2-2-2-2/5------2--2/5------------2/5---|
E|--------------------------/5-5-5-5--------|

E|------------------------------------------|
B|------------------------------------------|
G|------------------------------------------|
D|------------------------------------------|
A|-2-5---3p2-------2-2/5--3p2-----------0h2-|
E|-----------3----------------3---3/5-------|

[Primeira Parte]

Em                     D/F#    G 
   Eu te prometo não prometer nada
D                               Am 
  Também prometo não te cobrar nada
Em                     D/F#    G 
   A minha vida ainda vai ser minha
D                             C 
  E as suas coisas continuam suas

[Pré-Refrão]

                             G
E mesmo que ninguém entenda nada
                                   F   Em
Falar de amor é fácil, todo mundo fala
           Am                  
Quem são eles pra dizer que eu 
     C          D           G
Tô amando da maneira errada

[Refrão]

                                    D
Se eu te deixo livre é porque eu te amo
                                   Am   
A gente não precisa fazer nem um plano
                     Am7
Quando eu tô com saudade eu te chamo
    C             D
Eu deixo você ir 
                  G
Só pra te ver voltando

                                    D
Se eu te deixo livre é porque eu te amo
                                   Am   
A gente não precisa fazer nem um plano
                     Am7
Quando eu tô com saudade eu te chamo
    C             D
Eu deixo você ir 
                  G
Só pra te ver voltando

[Solo] D Am  C  D

E|------------------------------------------|
B|------------------------------------------|
G|------------------------------------------|
D|------------------------------------------|
A|-2-2-2-2-2/5------2--2/5------------2/5---|
E|--------------------------/5-5-5-5--------|

E|------------------------------------------|
B|------------------------------------------|
G|------------------------------------------|
D|------------------------------------------|
A|-2-5---3p2-----2-2/5--3p2-----------0-2-3-|
E|-----------3--------------3---3/5---------|

[Pré-Refrão]

                             G
E mesmo que ninguém entenda nada
                                   F   Em
Falar de amor é fácil, todo mundo fala
           Am                  
Quem são eles pra dizer que eu 
     C          D           G
Tô amando da maneira errada

[Refrão]

                                    D
Se eu te deixo livre é porque eu te amo
                                   Am   
A gente não precisa fazer nem um plano
                     Am7
Quando eu tô com saudade eu te chamo
    C             D
Eu deixo você ir 
                  G
Só pra te ver voltando

                                    D
Se eu te deixo livre é porque eu te amo
                                   Am   
A gente não precisa fazer nem um plano
                     Am7
Quando eu tô com saudade eu te chamo
    C             D
Eu deixo você ir 
                  G
Só pra te ver voltando

[Final] G  D  
        Am  C  D
00:00 / 00:00
Otros videos de esta canción
Repetir
Otros videos de esta canción
Composición de Juliano Tchula / Maiara / Marília Mendonça / Michel Alves
742 exhibiciones
  • Simplificar cifrado
    • ½ Tono
    • A
    • Bb
    • B
    • C
    • Db
    • D
    • Eb
    • E
    • F
    • F#
    • G
    • Ab
  • Agregar a la lista
    00:00 / 00:00
    OK