Cifra Club

Aprenda

Mania de Te Amar

Jorge e Mateus

Tablatura: Principal (guitarra)
tono: C#
Intro 2x: C# F# G# F# G# F# G#
E|-------1-2-1----------------------------------------------------------------|
B|-2---4-------4-2-----4-2-1-------2-1-----------------------------------1-2--|
G|-----------------1-1-------3-1-3-----3-1-1-3-1------------------1---3-------|
D|----------------------------------------------------1/3-4---1-3---4---------|
A|----------------------------------------------------------4-----------------|
E|----------------------------------------------------------------------------|

 C#             G#
Você quer voltar, quer me convencer
 C#              G#
De te perdoar, mas perdoar o quê?
 C#            B
Eu já me esqueci do que você me fez
 F#             D#m                G#
Mas eu não consigo mesmo te odiar

 C#              G#
O meu corpo pede pra sentir o seu
C#                G#
Minha boca pede por um beijo teu
C#             B
Eu já não discuto com meu coração
 F#                 D#m                 G#
E outra vez me entrego pra essa paixão

 C#       F#              G#
Ah, esse amor é a minha mania
               F#                 G#
De noite e de dia eu só sei te amar
       F#         G#
Eu só quero te amar
 C#        F#                   G#
Ah, esse amor já ficou no meu peito
                 F#                        G#
E não tem outro jeito, eu não sei dizer não
       D#m                 G#
Quando você vem atrás de mim
           D#m              C# G#
Vem sabendo que me tem na mão

C#          F#            G#
Ah, esse amor é a minha mania
               F#               G#
De noite e de dia eu só sei te amar
        F#         G#
Eu só quero te amar
 C#        F#                    G#
Ah, esse amor já ficou no meu peito
               F#                         G#
E não tem outro jeito, eu não sei dizer não
 D#m                      G#
Quando você vem atrás de mim
      F#                    G#                 C#
Não resisto à essa louca paixão

Intro: C# F# G# F# G# F# G#
E|-------1-2-1----------------------------------------------------------------|
B|-2---4-------4-2-----4-2-1-------2-1-----------------------------------1-2--|
G|-----------------1-1-------3-1-3-----3-1-1-3-1------------------1---3-------|
D|----------------------------------------------------1/3-4---1-3---4---------|
A|----------------------------------------------------------4-----------------|
E|----------------------------------------------------------------------------|

C#              G#
O meu corpo pede pra sentir o seu
C#                G#
Minha boca pede por um beijo teu
C#             B
Eu já não discuto com meu coração
 F#                 D#m                 G#
E outra vez me entrego pra essa paixão

 C#       F#              G#
Ah, esse amor é a minha mania
               F#                 G#
De noite e de dia eu só sei te amar
       F#         G#
Eu só quero te amar
 C#        F#                   G#
Ah, esse amor já ficou no meu peito
                 F#                        G#
E não tem outro jeito, eu não sei dizer não
       D#m                 G#
Quando você vem atrás de mim
           D#m              C# G#
Vem sabendo que me tem na mão

C#          F#            G#
Ah, esse amor é a minha mania
               F#               G#
De noite e de dia eu só sei te amar
        F#         G#
Eu só quero te amar
 C#        F#                    G#
Ah, esse amor já ficou no meu peito
               F#                         G#
E não tem outro jeito, eu não sei dizer não
 D#m                      G#
Quando você vem atrás de mim
      F#                    G#                 C#
Não resisto à essa louca paixão
Composição de Priscila Barucci
Colaboración y revision:
71 reproducciones
    • ½ Tono
    • A
    • Bb
    • B
    • C
    • Db
    • D
    • Eb
    • E
    • F
    • F#
    • G
    • Ab
  • Adicionar à lista

    0 comentarios

    Ver todos os comentários
    00:00 / 00:00
    outros vídeos desta música
    repetir qualidade Automático
    Outros vídeos desta música
    00:00 / 00:00
    Automático
    OK