Cifra Club

Aprenda

Me Acalma

Jorge e Mateus

Tablatura: Principal (guitarra)
tono: D
[Intro]

[Solo]

E|----------------------------------------------------|
B|-12~---7-10---7\5-5-5h7-7~--------------------------|
G|----------------------------------------------------|
D|----------------------------------------------------|
A|----------------------------------------------------|
E|----------------------------------------------------|

E|----------------------------------------------------|
B|-12~---7-10---7\5-5-5h7-3~---3p2---3p2---3/---------|
G|---------------------------------4-----4------------|
D|----------------------------------------------------|
A|----------------------------------------------------|
E|----------------------------------------------------|

E|----------------------------------------------------|
B|-12~---7-10---10--12--14--15~---14--12--7~----------|
G|----------------------------------------------------|
D|----------------------------------------------------|
A|----------------------------------------------------|
E|----------------------------------------------------|

E|-7--------------------------------------------------|
B|------5/7-9~----------------------------------------|
G|---7~-----------------------------------------------|
D|----------------------------------------------------|
A|----------------------------------------------------|
E|----------------------------------------------------|

[Primeira Parte]

    D9                      A
Eu penso quando penso em você
                    G
Se só eu te vejo assim
                     A
Se gosto de quem gosta de mim
    D9                        A
Eu tento quando tento não pensar
                       G
E fazer algo pra esquecer
                   A
Esse seu jeito lindo de ser

[Pré-Refrão]

    G          Bm7
Me devora, me consome
        D9                        A
Quando some eu fico louco a procurar
        G                     Bm7
Vou na sombra, mergulho na escuridão
        D9                      A
E sem aviso você volta pra me iluminar

[Refrão]
    
      G    A            Bm7
Pois só você que tem esse poder
 G    A               Bm7
Só você faz meu dia amanhecer
 G    A               Bm7
Só você faz minha estrela brilhar no céu
      G           A          D9
Vem acordar minha alma, me acalma

( G  A  Bm7  G  A  Bm7 )
( G  A  Bm7  G  A )

[Primeira Parte]

    D9                      A
Eu penso quando penso em você
                    G
Se só eu te vejo assim
                     A
Se gosto de quem gosta de mim
    D9                        A
Eu tento quando tento não pensar
                       G
E fazer algo pra esquecer
                   A
Esse seu jeito lindo de ser

[Pré-Refrão]

    G          Bm7
Me devora, me consome
        D9                        A
Quando some eu fico louco a procurar
        G                     Bm7
Vou na sombra, mergulho na escuridão
        D9                      A
E sem aviso você volta pra me iluminar

[Refrão]
    
      G    A            Bm7
Pois só você que tem esse poder
 G    A               Bm7
Só você faz meu dia amanhecer
 G    A               Bm7
Só você faz minha estrela brilhar no céu
      G           A          D9
Vem acordar minha alma, me acalma

      G    A            Bm7
Pois só você que tem esse poder
 G    A               Bm7
Só você faz meu dia amanhecer
 G    A               Bm7
Só você faz minha estrela brilhar no céu
      G           A          D9
Vem acordar minha alma, me acalma

( D  D9  D  D4  D  D9  D )  (8x)

[Solo] G  A  Bm7
       G  A  Bm7
       G  A  Bm7
       G  A

E|---------------7------------------------------------|
B|-10/12~---7-10---10p7---7---------------------------|
G|----------------------9---9---7---------------------|
D|----------------------------9----7---7h9-7h9/-------|
A|-----------------------------------9----------------|
E|----------------------------------------------------|

E|-------7--------------------------------------------|
B|-10b12---7-10-12-12p10----10------------------------|
G|-----------------------11----11-11-9-11-7-----------|
D|----------------------------------------------------|
A|----------------------------------------------------|
E|----------------------------------------------------|

E|----------------------10-----------10-12b14-10--------|
B|----------------10-12----12--12-12-------------12--12-|
G|---------7h9/11---------------------------------------|
D|-----7h9----------------------------------------------|
A|-7h9--------------------------------------------------|
E|------------------------------------------------------|

E|------------------------------------------------------|
B|-10-10-12-10p7---10/12-----------7--------------------|
G|---------------9-------11br9-7-9---9------------------|
D|-------------------------------------9--9---------4-7-|
A|------------------------------------------7-5-5-7-----|
E|------------------------------------------------------|

[Final] D
Composição de Mateus
67 reproducciones
    • ½ Tono
    • A
    • Bb
    • B
    • C
    • Db
    • D
    • Eb
    • E
    • F
    • F#
    • G
    • Ab
  • Adicionar à lista

    0 comentarios

    Ver todos os comentários
    00:00 / 00:00
    outros vídeos desta música
    repetir qualidade Automático
    Outros vídeos desta música
    00:00 / 00:00
    Automático
    OK