Cifra Club

Me Ame Mais (part. Marília Mendonça)

Jorge & Mateus

Cifrado: Principal (guitarra y guitarra eléctrica)
tono: Em
[Intro] Em7  B/D#  D  A/C#
        C  D  Em7

[Tab - Intro]

E|------------------------------------------|
B|------8-x-8--8/12~\------7-x-7-x-7--------|
G|----7---x-7--------------4-x-4-x-4--------|
D|--------x--------------4---x-4-x-4--------|
A|-/7-----x-7----------6-----x-6-x-6--------|
E|------------------------------------------|

E|------------------------------------------|
B|-----7-x-7-x-7------5-x-5-x---------------|
G|-------x---x------2---x-2-x---------------|
D|---7---x-7-x-7--------x---x---------------|
A|-5-----x-5-x-5--4-----x-4-x---------------|
E|------------------------------------------|

E|----------------0-------------------------|
B|--------------3-3-------------------------|
G|-----------0--2-0-------------------------|
D|-------0h2----4-2-------------------------|
A|-0h2-3--------5-2-------------------------|
E|----------------0-------------------------|

[Primeira Parte] 

                    B/D#
Ciúme, gesto, um olhar, muda o jeito
D                   A/C#
  Fecha a cara sem perceber
C9                    G/B
   Quando ligo, não atende o telefone
Am7
    Quando atende
          D
Logo me chama pelo nome

Em7
    São coisas simples
       B/D#
Não difíceis de entender
D                  A/C#
  Seu cuidado e excesso me faz crer
C9
   Que lá no fundo
      G/B
Seu amor pode temer
Am7                       D
    E cuidar de mim é a saída pra você

[Pré-Refrão] 

   Em7                 B/D#
E percebo, então, sua respiração
       D                 A/C#
Quando eu te deixo sem saída
C9
   De repente, então 
   G/B
Você sorri e olha pra mim
Am7
    Mexe no cabelo
          D
Tão sem graça diz assim

[Refrão] 

        G
Me ame mais, venha correndo 
                        D
E dê um pulo em meu pescoço

Como eu adoro o seu jeito 
     Am7
Mais     gostoso
                                 C9
Como me alegra ver você dizendo mais
           D
Me dá um cheiro, por favor

   G
Me ame mais, venha correndo 
                    D
E dê um pulo em meu   pescoço

Como eu adoro o seu jeito 
     Am7
Mais     gostoso
                                 C9
Como me alegra ver você dizendo mais
           D
Me dá um cheiro, por favor

[Tab - Riff]

E|------------------------------------------|
B|-5-7-8-9-7h8p7-5--------------------------|
G|-----------------7-4/5-4------------------|
D|-------------------------7-5--------------|
A|-----------------------------7------------|
E|------------------------------------------|

[Pré-Refrão] 

   Em7                 B/D#
E percebo, então, sua respiração
       D                 A/C#
Quando eu te deixo sem saída
C9
   De repente, então 
         G/B
Você sorri e olha pra mim
Am7
    Mexe no cabelo
     D
Tão sem graça diz assim

[Refrão] 

        G
Me ame mais, venha correndo 
                    D
E dê um pulo em meu   pescoço
                                   Am7
Como eu adoro o seu jeito mais gostoso
                                 C
Como me alegra ver você dizendo mais
           D
Me dá um cheiro, por favor

        G
Me ame mais, venha correndo 
                    D
E dê um pulo em meu   pescoço

Como eu adoro o seu jeito 
     Am7
Mais     gostoso
                                 C
Como me alegra ver você dizendo mais
           D
Me dá um cheiro, por favor

G
  Me ame mais, me dá um cheiro
              D
Por favor, me ame mais 
     Am7             C9
Me ame mais, me ame mais
           D           
Me dá um cheiro, por favor

[Final] Em7  B/D#  D  Em7

[Tab - Final]

E|------------------------------------------|
B|------8-x-8--8/12~\------7-x-7-x-7--------|
G|----7---x-7--------------4-x-4-x-4--------|
D|--------x--------------4---x-4-x-4--------|
A|-/7-----x-7----------6-----x-6-x-6--------|
E|------------------------------------------|
                                
                                 H.N.
E|------------------------------------------|
B|-----7-x-7--------------------------------|
G|-------x-----------------------12---------|
D|---7---x-7---------------------12---------|
A|-5-----x-5--0-2-3-2h3p2-0-----------------|
E|--------------------------3-0-------------|
00:00 / 00:00
Otros videos de esta canción
Repetir
Otros videos de esta canción
Composición de Henrique Andrade
Colaboración y revisión:
  • Victor Alves
60 exhibiciones
  • Simplificar cifrado
    • ½ Tono
    • Am
    • Bbm
    • Bm
    • Cm
    • C#m
    • Dm
    • Ebm
    • Em
    • Fm
    • F#m
    • Gm
    • G#m
  • Agregar a la lista
    00:00 / 00:00
    OK