Cifra Club

Aprenda

Menina Maluquinha

Jorge e Mateus

Tablatura: Principal (guitarra)
tono: A (con acordes en la forma de G) Capotraste na 2ª casa
[Intro] G  D  Em7  C9

E|-------------------9--------------------------------|
B|-----10~-----12b14---12-10-12~-9~-------------------|
G|---------9~-----------------------------------------|
D|----------------------------------------------------|
A|-12\------------------------------------------------|
E|----------------------------------------------------|

E|-------9--------------------------------------------|
B|-12b14---12-10-12~----------------------------------|
G|-------------------11~------------------------------|
D|----------------------------------------------------|
A|----------------------------------------------------|
E|----------------------------------------------------|

E|-------9------------------9/12~---------------------|
B|-12b14---12-10-----9~-10~-------12b14~--------------|
G|---------------11~----------------------------------|
D|----------------------------------------------------|
A|----------------------------------------------------|
E|----------------------------------------------------|

[Primeira Parte]

  G
Troco um milhão de dólar por um cheiro
  D
Troco carro, casa, joia por um beijo
 Am7
Não tenho palavras pra explicar
 C9
Mas eu te daria a minha vida

[Pré-refrão]

    Em7           G
Te ver chegar me faz voar
Bm7
    Até a lua e voltar
    Em7          C9
Te ver chegar sozinha
 G                 D
Hoje você vai ser minha

[Refrão]

           G
Minha namorada
           D
Minha princesinha
          Em7
Meio atrapalhada
            C9
Menina maluquinha

           G
Minha namorada
           D
Minha princesinha
          Em7
Meio atrapalhada
            C9
Menina maluquinha

[Solo] G  D9  Em7  C9

E|---------------9------------------------------------|
B|-10~-----12b14---12-10-12~-9~-----------------------|
G|-----9~---------------------------------------------|
D|----------------------------------------------------|
A|----------------------------------------------------|
E|----------------------------------------------------|

E|-------9--------------------------------------------|
B|-12b14---12-10-12~----------------------------------|
G|-------------------11~------------------------------|
D|----------------------------------------------------|
A|----------------------------------------------------|
E|----------------------------------------------------|

E|-------9------------------12------------------------|
B|-12b14---12-10-----9~-10~----12b14-12b14~-----------|
G|---------------11~----------------------------------|
D|----------------------------------------------------|
A|----------------------------------------------------|
E|----------------------------------------------------|

[Pré-refrão]

    Em7           G
Te ver chegar me faz voar
Bm7
    Até a lua e voltar
    Em7          C9
Te ver chegar sozinha
 G                 D
Hoje você vai ser minha

[Refrão]

           G
Minha namorada
           D
Minha princesinha
          Em7
Meio atrapalhada
            C9
Menina maluquinha

           G
Minha namorada
           D
Minha princesinha
          Em7
Meio atrapalhada
            C9
Menina maluquinha

[Solo Final] G  D9  Em7  C9  G

E|----------------------------------------------------|
B|-12b14r12p10-12~--10-12p10----10-12-----------------|
G|---------------------------------11-9---------------|
D|---------------------------11---------11\9-7--------|
A|----------------------------------------------------|
E|----------------------------------------------------|

E|----------------------------------------------------|
B|--------------7-10-7--------------------------------|
G|----------------------------------------------------|
D|-9-7---7-7-----------8\7-8\7-5-7-5------------------|
A|-----9-----9----------------------------------------|
E|----------------------------------------------------|

E|----------------------------------------------------|
B|----------------------------------------------------|
G|---------------6------------------------6/7\6~------|
D|-----------7h9---9~-9-7--------7h9-7--7-------------|
A|-9p7---7h9--------------9--7h9----------------------|
E|-----9----------------------------------------------|
Composição de Ivo Mozart / Manuca Almeida / Marcelo Mira / Tato / Zeider Pires
Colaboración y revision:
  • Leandro Sandim
  • Lucas Kappaun
  • Arthur Machado
132 reproducciones
    • ½ Tono
    • A
    • Bb
    • B
    • C
    • Db
    • D
    • Eb
    • E
    • F
    • F#
    • G
    • Ab
  • Adicionar à lista

    0 comentarios

    Ver todos os comentários
    00:00 / 00:00
    outros vídeos desta música
    repetir qualidade Automático
    Outros vídeos desta música
    00:00 / 00:00
    Automático
    OK