Cifra Club

Aprenda

Mistérios

Jorge e Mateus

Tablatura: Principal (guitarra)
Tom: A
[Intro] A  E6  Bm7  Bm
        A  E6  Bm7  Bm

   A                       E6
E|-12-------12-------12----12------12-------12----|
B|-------14-------14------------12-------12-------|
G|----14-------14-------14---13-------13-------13-|(2x)
D|------------------------------------------------|
A|------------------------------------------------|
E|------------------------------------------------|

   Bm7                     Bm
E|-10-------10-------10----10------10-------10----| 
B|-------10-------10------------12-------12-------|  
G|----11-------11-------11---11-------11-------11-|(2x) 
D|------------------------------------------------|
A|------------------------------------------------|
E|------------------------------------------------| 

[Primeira Parte]

  A                    E
Não há disfarce nesse seu olhar
          F#m            D
Que incendeia o meu coração
A                 E
Esse desejo te revelará
               F#m                      D
Em um simples gesto qual será sua intenção

[Segunda Parte]

A                    E
  Eu só quero que você entenda
F#m                         D
    Que o meu sentimento é verdadeiro
A            E               F#m       D
  Não há segredos quando o amor chegar

[Refrão]

A                     E
  Seu olhar foi de encontro ao meu
Bm                       D
   E o meu destino está junto ao teu
A           E       
  Meu vício, mania 
Bm                     D
   Eu desvendei os mistérios do seu coração

A                     E
  Seu olhar foi de encontro ao meu
Bm                       D
   E o meu destino está junto ao teu
A           E       
  Meu vício, mania 
Bm                     D
   Eu desvendei os mistérios do seu coração
Compositor Diego Damasceno
692 reproducciones
  • Simplificar cifra
    • ½ Tom
    • A
    • Bb
    • B
    • C
    • Db
    • D
    • Eb
    • E
    • F
    • F#
    • G
    • Ab
  • Adicionar à lista

    0 comentarios

    Mostrar mais comentários
    00:00 / 00:00
    outros vídeos desta música
    repetir qualidade Automático
    Outros vídeos desta música
    00:00 / 00:00
    Automático
    Capítulos
    • Início
    • Acordes da primeira parte
    • Tocando a primeira parte
    • Tocando ritmo da primeira parte devagar
    • Tocando ritmo da primeira parte
    • Acordes da segunda parte
    • Tocando segunda parte
    • Tocando ritmo da segunda parte devagar
    • Tocando ritmo segunda parte
    • Acordes do refrão
    • Tocando refrão
    • Tocando ritmo do refrão devagar
    • Tocando solo da introdução
    • Tocando solo da introdução devagar
    • Ensinando solo da introdução
    • Encerramento
    OK