Cifra Club

Molhando o Volante

Jorge & Mateus

Cifrado: Versao-3 (guitarra y guitarra eléctrica)
tono: C
[Intro] D

Solo Da Intro

E|------------------------------------------------|
B|------------------------------------------------|
G|--2p1----2p1---2/3------------------------------|
D|------2------2----------------------------------|
A|------------------------------------------------|
E|------------------------------------------------|

[Primeira Parte]

 D
Recém largado é assim
    F#m             E
Perfil atualizado, legenda de salmo
 D
Larga e começa a sair
   F#m                 E
É só cena de álcool, status superado

E|------------------------------------------|
B|------------------------------------------|
G|------------------------------------------|
D|------------------0-----------------------|
A|------------0-2---------------------------|
E|--0-2-2/4---------------------------------|

[Pré-Refrão]

 D
Localização de bar lotado

Insinuações que tem alguém do lado
 F#m
Posta estar voltando pra casa às seis
        E                               D
Pra provar pro ex que quem perdeu foi o ex

[Refrão]

       A                            E
Mas o som do seu carro só toca indireta
                                  Bm7
Para de filmar o painel e vira a tela
                             D
Só sai saudade desse alto-falante
                                       A
Atrás dos stories, cê tá molhando o volante

                             E
No som do carro só toca indireta
                                  Bm7
Para de filmar o painel e vira a tela
                             D
Só sai saudade desse alto-falante
                                       A
Atrás dos stories, cê tá molhando o volante

    E          Bm7
Chorando bastante

Quer mostrar que esqueceu
      D         A
Então   esquece antes

[Solo] A  E  Bm7  D  E

Parte 1 De 4
E|------------------------------------------------|
B|--3/5--5-5-5-5-5-5-5h7-5------5-5---------------|
G|--4/6--6-6-6-6-6-6-6----6-6-6-6-6-6-4-----------|
D|--------------------------7-7-----7-6-----------|
A|------------------------------------------------|
E|------------------------------------------------|

Parte 2 De 4
E|------------------------------------------------|
B|--5-5-5-5-5h7-5------7-7------------------------|
G|----------------6-6-----------------------------|
D|------------------------------------------------|
A|------------------------------------------------|
E|------------------------------------------------|

Parte 3 De 4
E|------------------------------------------------|
B|--5/7-7-7-7-5-7-7-7-5-7-------------------------|
G|--5/7-7-7-7-6-7-7-7-6-7-6-4---------------------|
D|----------------------------7-------------------|
A|------------------------------------------------|
E|------------------------------------------------|

Parte 4 De 4
E|------------------------------------------------|
B|------------------------------------------------|
G|------------------------------------------------|
D|--------------------0---------------------------|
A|--------------0-2-------------------------------|
E|--0-2-2/4---------------------------------------|

[Pré-Refrão]

 D
Localização de bar lotado

Insinuações que tem alguém do lado
 F#m
Posta estar voltando pra casa às seis
        E                               D
Pra provar pro ex que quem perdeu foi o ex

[Refrão]

       A                            E
Mas o som do seu carro só toca indireta
                                  Bm7
Para de filmar o painel e vira a tela
                             D
Só sai saudade desse alto-falante
                                       A
Atrás dos stories, cê tá molhando o volante

                             E
No som do carro só toca indireta
                                  Bm7
Para de filmar o painel e vira a tela
                             D
Só sai saudade desse alto-falante
                                       A
Atrás dos stories, cê tá molhando o volante

    E           Bm7
Chorando bastante
                       D
Quer mostrar que esqueceu
                 A  E  Bm7
Então esquece antes

Bm7                        D
    Quer mostrar que esqueceu

Então esquece antes

[Solo Final]

E|------------------------------------------------|
B|------------------------------------------------|
G|--2p1----2p1---2/3------------------------------|
D|------2------2----------------------------------|
A|------------------------------------------------|
E|------------------------------------------------|

[Final] D
00:00 / 00:00
Otros videos de esta canción
Repetir
Otros videos de esta canción
Composición de Diego Silveira / Edson Garcia / Felipe Marins / Junior Pepato / Rodrigo Marco
Colaboración y revisión:
  • Gustavo Zanandrez
7 exhibiciones
  • Simplificar cifrado
    • ½ Tono
    • A
    • Bb
    • B
    • C
    • Db
    • D
    • Eb
    • E
    • F
    • F#
    • G
    • Ab
  • Agregar a la lista
    00:00 / 00:00
    OK