Cifra Club

Fogueira

Jorge e Mateus

Tablatura: Principal
reproducciones 671
Tono: D
Intro: Bm F#m G D  A/C#  Bm F#m G D

E|-----------------------2------------------------------|
B|-----------------3-3-------0h2-2-2-0------------------|
G|-----------4-4-4---------------------2-4-4-4-4-2-4-2--|
D|----0-------------------------------------------------|
A|-0h2--4-2---------------------------------------------|
E|------------------------------------------------------|

E|-----------------------7*-----------------------------|
B|-----------------3-3---7*---0h2-2-2-0-----------------|
G|-----------4-4-4---------------------2-4-4-4-4-2-4-2--|
D|------------------------------------------------------|
A|---5-4-2----------------------------------------------|
E|------------------------------------------------------|

   Bm               F#m
Não para de chover
               G              D       A
E eu preciso do sol pra lembrar seu calor
    Bm          F#m
Se eu te magoei
               G           D        A
Desculpa estou aprendendo o que é amor

F#m              Bm
Nas noites mais escuras
           G                 D                   F#m
Nos bares, nas ruas, tudo é solidão
                    Bm
Não me deixe sozinho,
             G                      A
falta de carinho rima com nova paixão

  D               A
Eu quero o seu amor
                     G                D D4 D
Eu quero ser seu homem, se você quiser
                   A
Se eu tiver seu amor
           G                   D D4 D
Juro não preciso amar outra mulher
            G              A           D
Não deixe apagar, a fogueira do meu coração

Solo: Bm F#m G D  A/C#  Bm F#m G D

E|-----------------------2-----------------------------|
B|-----------------3-3-------0h2-2-2-0-----------------|
G|-----------4-4-4---------------------2-4-4-4-4-2-4-2-|
D|----0------------------------------------------------|
A|-0h2--4-2--------------------------------------------|
E|-----------------------------------------------------|

E|------------------------------------------------------|
B|-----------------3-3-------0h2-2-2-0------------------|
G|-----------4-4-4---------------------2-4-4-4-4-2-4-2--|
D|------------------------------------------------------|
A|---5-4-2----------------------------------------------|
E|------------------------------------------------------|

(repete tudo)

  D               A
Eu quero o seu amor
                     G                D D4 D
Eu quero ser seu homem, se você quiser
                   A
Se eu tiver seu amor
           G                   D D4 D
Juro não preciso amar outra mulher

  D                A
Eu quero o seu amor
                     G                D D4 D
Eu quero ser seu homem, se você quiser
                    A
Se eu tiver seu amor
                    G            D D4 D
Juro não preciso amar outra mulher
                G              A           D
Não deixe apagar, a fogueira do meu coração
                G              A           D
Não deixe apagar, a fogueira do meu coração

( D D4 D D4 ) (2x)
Acordes para:
    Colaboración y revision:

    0 comentarios

      mostrar más comentarios

      ¿Conseguiste tocar?

      50tocaron0aún no

      ¡Graba un vídeo tocando Fogueira y envianoslo!

      00:00 / 00:00
      outros vídeos desta música
      repetirqualidadeautomática
      Outro vídeos desta música
        00:00 / 00:00
        automática
        OK