Cifra Club

Seu Astral

Jorge & Mateus

Tab de bajo: Principal
Seu astral:
 1° Intro                                                                                2° Refrão
Fico sozinho pensando em você                    Eu viajei no seu olhar, no teu sorriso 
G -------------------------|       G -------------------------|
D -------------------------|       D -------------------------|
A -------------------------|       A -------------------------|
E -33--333-----22----222---|       E -3--33---3-----3-5-7-7---|

   Vejo imagens, retratos de nós                                   Nos teus segredos 
G -----------------------|         G -----------------|
D -----------------------|         D------------------|
A -------------22---2/3--|         A------------------|
E -33--33---------------5|         E ---------7-5-5---|  

  Olho pro espelho sinto o meu coração                       Eu descobri o que é amar
G -------------------------|       G ------------------|
D -------------------------|       D ------------------|
A -------------------------|       A ------------------|
E -33--333-----22----222---|       E -3---33----3------|

  Ouço baixinho o som da sua voz                              Pelo toque dos seus beijos••.
G -----------------------|         G ------------------|
D -----------------------|         D ------------------|
A -------------22---245--|         A ------------------|
E -33--33----------------|         E -3-5-7--7---7-5—5-|

  Dizendo pra mim que é sobrenatural 
G -------------------------|
D -------------------------|
A -------------------------|
E -3--3--3--3--3--3--3--3--|

   Esse amor fora do normal 
G -----------------------|
D -----------------------|
A ----22------245--------|
E -----------------------|

 Dizendo pra mim que sou o seu astral 
G -------------------------|
D -------------------------|
A -------------------------|
E -3--3--------3---3---3---|

 Que esse amor que está em mim é tão real•.
G -------------------------|
D -------------------------|
A -------------------------|
E -5--5--------5---5---5---|
00:00 / 00:00
Otros videos de esta canción
Repetir
Otros videos de esta canción
Composición de Diego Damasceno
Colaboración y revisión:
  • Luiz monari
  • millena celestino
84 exhibiciones
00:00 / 00:00
OK