Cifra Club

Aprenda

Olha Amor

Jorge e Mateus

Tablatura: Principal (guitarra)
Tom: D
Intro: D E7 G D A

Solo:
E|---------------------------------------------------3-|
B|----------3---3-3-3-3-2-------------------------3p5--|
G|-----2-----2------------------------4-2--4-2-1-------|
D|--4 -------------------------------------------------|
A|-----------------------------------------------------|
E|-----------------------------------------------------|

E|----------3-3-3-3-2---------------------------------|
B|---------3--------------5-3---2-3-5------------------|
G|-----------------------------------------------------|
D|-----------------------------------------------------|
A|-----------------------------------------------------|
E|-----------------------------------------------------|

D                 A/C#          Bm
 Olha amor, tô morrendo de saudade
    Bm/A            G
Coração tá com vontade
      B           Em   B
De sentir o seu pulsar
Em                B            Em
 Olha amor, eu vi todos os meus planos
                     A
Se perdendo em desenganos
               D      G A
Vi meu mundo desabar
D                 A/C#          Bm
 Olha amor, foram tantas por aí
         Bm/A           G
Tive às vezes que menti
       B7            Em
Que eu tinha te esquecido
G                  A        F#m
 Olha amor, eu mentia para o mundo
       Bm          Em
Mas a saudade profunda
          A           D
Fez minha vida mais sofrida
A                         Bm
Olha amor, a saudade dói demais
                     A
Roubou toda a minha paz
                   D
Tá difícil te esquecer
A                            Bm
Olha amor, por favor não me esqueça
                   A
Estou perdendo a cabeça
                  D    G A
De saudades de você.
Compositor Pinochio
Colaboración y revision:
101 reproducciones
    • ½ Tom
    • A
    • Bb
    • B
    • C
    • Db
    • D
    • Eb
    • E
    • F
    • F#
    • G
    • Ab
  • Adicionar à lista

    0 comentarios

    Mostrar mais comentários
    00:00 / 00:00
    outros vídeos desta música
    repetir qualidade Automático
    Outros vídeos desta música
    00:00 / 00:00
    Automático
    OK