Cifra Club

Olha Amor

Jorge & Mateus

Cifrado: Principal (guitarra y guitarra eléctrica)
tono: D
[Intro] G  A7  C  G  D

E|----------------------------------------------------8--|
B|----------8---8-8-8-8-7-------------------------8p10---|
G|-----7-----7------------------------9-7--9-7-6---------|
D|--9| --------------------------------------------------|
A|-------------------------------------------------------|
E|-------------------------------------------------------|

E|-----------8-8-8-8-7-----------------------------------|
B|---------8--------------10-8---7-8-10------------------|
G|-------------------------------------------------------|
D|-------------------------------------------------------|
A|-------------------------------------------------------|
E|-------------------------------------------------------|

G                 D/F#          Em
 Olha amor, tô morrendo de saudade
    Em/D            C
Coração tá com vontade
      E           Am   E
De sentir o seu pulsar
Am                E            Am
 Olha amor, eu vi todos os meus planos
                     D
Se perdendo em desenganos
               G      C D
Vi meu mundo desabar
G                 D/F#          Em
 Olha amor, foram tantas por aí
         Em/D           C
Tive às vezes que menti
       E7            Am
Que eu tinha te esquecido
C                  D        Bm
 Olha amor, eu mentia para o mundo
       Em          Am
Mas a saudade profunda
          D           G
Fez minha vida mais sofrida
D                         Em
Olha amor, a saudade dói demais
                     D
Roubou toda a minha paz
                   G
Tá difícil te esquecer
D                            Em
Olha amor, por favor não me esqueça
                   D
Estou perdendo a cabeça
                  G    C D
De saudades de você
00:00 / 00:00
Otros videos de esta canción
Repetir
Otros videos de esta canción
Composición de Pinochio
Colaboración y revisión:
255 exhibiciones
    • ½ Tono
    • A
    • Bb
    • B
    • C
    • Db
    • D
    • Eb
    • E
    • F
    • F#
    • G
    • Ab
  • Agregar a la lista
    00:00 / 00:00
    OK