Cifra Club

Aprenda

Pirraça

Jorge e Mateus

Tablatura: Principal (guitarra)
tono: E
[Intro] A  B  E 
        A  B  E
        A  E  A  E  B  

E|------------------------------------------|
B|------------------------------------------|
G|------------------------------------------|
D|------------------------------------------|
A|----------2-4-2--4-6-7-7-7----------------|
E|-0-2-4-5----------------------------------|

E|-12-11-7-9--7-9-7h9p7---------------------|
B|----------------------9-------------------|
G|------------------------------------------|
D|------------------------------------------|
A|------------------------------------------|
E|------------------------------------------|

E|-12-11-7-9--7-9-7h9p7---------------------|
B|----------------------9--5-7-9-10-10-9-7-5|
G|------------------------------------------|
D|------------------------------------------|
A|------------------------------------------|
E|------------------------------------------|

E|-4-5-7-9--9-7-5-4----------7--------------|
B|-------------------5-4-2------------------|
G|-------------------------4----------------|
D|------------------------------------------|
A|------------------------------------------|
E|------------------------------------------|

[Primeira Parte]

 E                       C#m7
Vou pagar promessas de joelho
 A                 B
Só pra esquecer você
 E                         C#m7
Vou passar uns dias lá na lua
A                     B
Eu não quero mais te ver

[Pré-Refrão]

 G#m                   C#m7        G#m
Vou falar pro meu coração bater o pé
                      C#m7
Pra não morrer de paixão, não quero
 A                   B
Mais esse amor, que me faz tão mal
  A               B             E
Chega de sofrer adeus, ponto final

[Refrão]

                 A    B       E
Não vou mais chorar, como chorei
            A           B       E
Nem me lembrar, que um dia te amei
             G#m             C#m7
Bye bye tristeza, adeus solidão
              A        B       E
Vou fazer pirraça pro seu coração  

                 A    B       E
Não vou mais chorar, como chorei
            A           B       E
Nem me lembrar, que um dia te amei
             G#m             C#m7
Bye bye tristeza, adeus solidão
              A        B       E
Vou fazer pirraça pro seu coração  

[Solo] A  B  E 
       A  B  E 
       A  E  A  E  B 

E|-12-11-7-9--7-9-7h9p7---------------------|
B|----------------------9-------------------|
G|------------------------------------------|
D|------------------------------------------|
A|------------------------------------------|
E|------------------------------------------|

E|-12-11-7-9--7-9-7h9p7---------------------|
B|----------------------9--5-7-9-10-10-9-7-5|
G|------------------------------------------|
D|------------------------------------------|
A|------------------------------------------|
E|------------------------------------------|

E|----------------------------7-------------|
B|-5-7-9-10-10-9-7-5--5-4-2-----------------|
G|--------------------------4---------------|
D|------------------------------------------|
A|------------------------------------------|
E|------------------------------------------|

[Primeira Parte]

 E                       C#m7
Vou pagar promessas de joelho
 A                 B
Só pra esquecer você
 E                         C#m7
Vou passar uns dias lá na lua
A                     B
Eu não quero mais te ver

[Pré-Refrão]

 G#m                   C#m7        G#m
Vou falar pro meu coração bater o pé
                      C#m7
Pra não morrer de paixão, não quero
 A                   B
Mais esse amor, que me faz tão mal
  A               B             E
Chega de sofrer adeus, ponto final

[Refrão]

                 A    B       E
Não vou mais chorar, como chorei
            A           B       E
Nem me lembrar, que um dia te amei
             G#m             C#m7
Bye bye tristeza, adeus solidão
              A        B       E
Vou fazer pirraça pro seu coração  

                 A    B       E
Não vou mais chorar, como chorei
            A           B       E
Nem me lembrar, que um dia te amei
             G#m             C#m7
Bye bye tristeza, adeus solidão
              A        B       E
Vou fazer pirraça pro seu coração  
             G#m             C#m7
Bye bye tristeza, adeus solidão
              A        B       E
Vou fazer pirraça pro seu coração  

[Final] A  B  E
        A  B  E
        A  E  A  E

E|-12-11-7-9--7-9-7h9p7---------------------|
B|----------------------9-------------------|
G|------------------------------------------|
D|------------------------------------------|
A|------------------------------------------|
E|------------------------------------------|

E|-12-11-7-9--7-9-7h9p7---------------------|
B|----------------------9--5-7-9-10-10-9-7-5|
G|------------------------------------------|
D|------------------------------------------|
A|------------------------------------------|
E|------------------------------------------|

E|------------------------------------------|
B|-5-7-9-10-10-9-7-5------------------------|
G|------------------------------------------|
D|------------------------------------------|
A|------------------------------------------|
E|------------------------------------------|
Composição de Marquinhos Maraial
534 reproducciones
    • ½ Tono
    • A
    • Bb
    • B
    • C
    • Db
    • D
    • Eb
    • E
    • F
    • F#
    • G
    • Ab
  • Adicionar à lista

    0 comentarios

    Ver todos os comentários
    00:00 / 00:00
    outros vídeos desta música
    repetir qualidade Automático
    Outros vídeos desta música
    00:00 / 00:00
    Automático
    OK