Cifra Club

Pode Chorar

Jorge & Mateus

Cifrado: Versão 3 (guitarra y guitarra eléctrica)
tono: C
Pode Chorar
Intro

(by bieda)                  C              G
      1 + 2 + 3 + 4  +      1  +   2   +   3 + 4  +
E||----------------------|---------5------------------|
B||---------------8------|-----8-8---8-6-5-6---8------|
G||:-----------------5-5-|--5---------------------5-5-|
D||:---------------------|----------------------------|
A||----------------------|----------------------------|
E||----------------------|----------------------------|
  
  Am             F               Dm             C           G       G
  1  +   2   +   3  +  4  +      1  +   2   +   3 + 4  +    1 + 2 + 3 + 4  +
---------5-------5--5--5------|-----5-5-7-5--------------|-----------------------||
-----8-8---8-6-5----------6-6-|--6----------8-6-5~~~~~~~-|--------------8--------||
--5---------------------------|--------------------------|--7---5---4------5-5--:||
------------------------------|--------------------------|----------------------:||
------------------------------|--------------------------|-----------------------||
------------------------------|--------------------------|-----------------------||

C                     G          Am
Quase que acabo com a minha vida
                     F
Você me pôs num beco sem saída
    C   Am          G
Por que fez isso comigo
C                   G      Am
Me dediquei somente a você
                     F
O que eu podia eu tentei fazer
     C    Am        G
Mas não, não adiantou.

                       F
Você não sabe o que é Amarrr
                       Am
Você não sabe o que é Amorrr
                      F                Dm
Acha que é só mesmo ficar, ficar, ficar
             G
E se rolar rolou.
                      F
Não se maltrata o coração
                      Am
De quem não merece sofrer.
                      F               Dm
Não vou ficar na solidão de mão em mão
             G7
Assim como você.

        C
Pode chorar,
                       G
Mas eu não volto pra você.
        Am
Pode chorar,
                      F
Você não vai me convencer.
        Dm
Pode chorar,
                           Am            G
Você se lembra o quanto eu chorei por você.

(Intro)
00:00 / 00:00
Otros videos de esta canción
Repetir
Otros videos de esta canción
Composición de Dorgival Dantas
Colaboración y revisión:
  • rafael bieda
8 exhibiciones
    • ½ Tono
    • A
    • Bb
    • B
    • C
    • Db
    • D
    • Eb
    • E
    • F
    • F#
    • G
    • Ab
  • Agregar a la lista
    00:00 / 00:00
    Capítulos
    • Início
    • Acordes da introdução
    • Tocando introdução
    • Ritmo
    • Acordes da primeira parte
    • Tocando primeira parte
    • Acordes da segunda parte
    • Tocando segunda parte
    • Passagem da segunda parte
    • Acordes do refrão
    • Tocando refrão
    • Encerramento
    OK