Cifra Club

Pode Chorar

Jorge & Mateus

Tab de bajo: Principal
Essa é a base da primeira versão da música,
pode variar para os shows ao vivo.


Intro
   C      G      Am    F       Dm    Am   G
G|-------------------------------------------------------|
D|-------------------------------------------------------|
A|-3-----------------------------------------------------|
E|---3-5--3-3-4--5---------------3-4--5-4-3--3-----3-----|
B|-----------------5-7--6-1-2--3---------------3-5---3-5-|

Quase que acabo com a minha vida...
   C      G      Am     F            C    G        
G|-----------------------------------------------------|
D|-----------------------------------------------------|
A|-3----------------------------1-2--3-------------5-4-|
E|---3-5--3-4-5--5------------1-------3-5--3------3----|
B|-----------------5-7--6-1-3----------------3-5-------|

   C      G      Am     F
G|--------------------------------------5--------------------|
D|----------------------------------3^5----------------------|
A|-3----------------------------3^5--------------------------|
E|---3-5--3-4-5--5------1-----1-----------1-2-3------3-----3-|
B|-----------------5-7----1-3--------------------3-5---3-5---|

Você não sabe o que é amar...
   F             Am          F     Dm      G   
G|-------------------------------------------------------|
D|-----3^5-2/3~------------------------------------------|
A|-3^5---------------------------------------------------|
E|---------------5-----5------1-1-1----1-2-3-3-----3-----|
B|-----------------5-7---5-7--------3~---------3-5---3-5-|

   F             Am          F     Dm      G   
G|---------------------------------------------------|
D|-----3^5-2/3~--------------------------------------|
A|-3^5-----------------------------------------------|
E|---------------5-----5------1-1-1----1-2-3-3-----3-|
B|-----------------5-7---5-7--------3~---------3-5---|

                                               
Pode chorar...
   C      G      Am    F       Dm    Am   G
G|-------------------------------------------------------|
D|-------------------------------------------------------|
A|-3-----------------------------------------------------| 4x
E|---3-5--3-3-4--5---------------3-4--5-4-3--3-----3-----|
B|-----------------5-7--6-1-2--3---------------3-5---3-5-|


Cifrado por Paulo Kavia
00:00 / 00:00
Otros videos de esta canción
Repetir
Otros videos de esta canción
Composición de Dorgival Dantas
Colaboración y revisión:
  • Paulo Soares
20 exhibiciones
00:00 / 00:00
OK