Cifra Club

Pagodes (Pot-pourri)

Jorge & Mateus

Cifrado: Versão 2 (guitarra y guitarra eléctrica)
tono: E
INTRO

                             E
E|---10---10---9----7-------000------------------|
B|---12---12---10---9-------000------------------|
G|--------------------------111------------------|
D|--------------------------222------------------|
A|--------------------------222------------------|
e|--------------------------000------------------|

                             E
E|----9----9---5---4--------000------------------|
B|----7----7---7---5--------000------------------|
G|--------------------------111------------------|
D|--------------------------222------------------|
A|--------------------------222------------------|
e|--------------------------000------------------|

                             E
E|----9----9---5---4--------000------------------|
B|----7----7---7---5--------000------------------|
G|--------------------------111------------------|
D|--------------------------222------------------|
A|--------------------------222------------------|
e|--------------------------000------------------|

( E7, E, E7, E )

 E7
Eu não caio do cavalo, nem do burro e nem do galho 
 
Ganho dinheiro cantando, a viola é meu trabalho 
                   A                     B   ( B, A , B ) 
No lugar onde tem seca eu de sede lá não caio 
                 A       B                     E 
Levanto de madrugada e bebo pingo de orvalho, chora viola !
 

Base do Solo: E   E7   A   B

E|---9--9---9---9/10--10---9--7/10--10-------------------------------|
B|---7--7--10--10/12--12--10--9/12--12-------------------------------|
G|-------------------------------------------------------------------|

E|---14--14--12--12--10--10---9---9--7--7--5--5/7--------------------|
B|---15--15--14--14--12--12--10--10--9--9--7--7/9--------------------|
G|-------------------------------------------------------------------|

E|---14--12--14--14--12--10--12---9--12--11---9--7--7--7--5--5-------|
B|---15--14--15--15--14--12--14--10--14--12--10--9--9--9--7--7-------|
G|-------------------------------------------------------------------|

Final da Base:  E  D  E  D  E

E                       G#m         A             G#m
Caminheiro que lá vai indo, pro rumo da minha terra
     A            G#m       E                E7  ( E, E7 )
Por favor faça parada, na casa branca da serra
 E               E7       E             E7
Ali mora uma velhinha, chorando o filho seu
  E                E7        A            E   ( E, F#m, G#m )
Essa velha é minha mãe, e o seu filho sou eu
A                 E          B           E
Ooooooooi, caminheiro, leva esse recado meu!  (2X)

E          B
Cachorro latiu, vou aprevenir

Ladrão de muié taí
      A      
Quem tiver muié bonita
   E    
Prepare as arma que tem
   B    
Cachorro latiu de noite
                  E
Ladrão de muié laivém
                B     
Namorar muié casada
                E
É ser muito atrevido
         
Dá uma olhada nela
                     B     ( B, A, B )
E quatro, cinco no marido
A
Será que ele não tem medo
           B                E
Da bala do trinta no pé do ouvido?
                B
Muita moça me namora
                      E
Pensa que eu tenho dinheiro
                  
Mas dinheiro eu não tenho
                   B       ( B, A, B )
Mas sou um rapaz faceiro
A                
Apesar de eu ser casado
          B               E
Eu pulo o corgo, eu sou sorteiro

E
Quem me vê com mulher feia pode crer que eu to doente
                                          B             
Quem me vê de carro velho socorre que é acidente

Quem me vê colhendo o fruto eu já plantei a semente
                                                      E     
Quem me vê contando história quem conta a história não mente
            B                           E       
Quem me de cara feia é que só tem cerveja quente

E
Numa rodada de truco o zap só sai comigo
                                     B  
Sete copa vira tento na corrida do inimigo                              

Num jogo de futebol ninguém pode me marcar
                                     E
Eu bato o escanteio e corro pra cabecear
                  B                    E
E a galera grita gol vendo a rede balançar

E
Me transformo num menino quando me prega a paixão
                                     B  
Misturo meu sentimento com viola e canção

Quando quero um amor até me arrasto pelo chão
                                        E               
Não sou desobediente quando manda o coração
                B                        E
Na escola do desejo sou doutor sou campeão

                        B
E|---14--14--12--11-------222------------------|
B|---16--16--14--12-------444------------------|
G|------------------------444------------------|
D|------------------------444------------------|
A|------------------------222------------------|
e|------------------------xxx------------------|

                                B
E|---11--11--6---9--7--7--7-------222-------------|
B|---12--12--7--11--9--9--9-------444-------------|
G|--------------------------------444-------------|
D|--------------------------------444-------------|
A|--------------------------------222-------------|
e|--------------------------------xxx-------------|

B
Mundo velho está perdido, já não indireita mais
                                         F#
Os filhos de hoje em dia já não obedecem os pais

É o começo do fim, já estou vendo os sinais
E                       F#           B
Metade da mocidade estão virando marginais
E                      F#                                                B
É um bando de serpente: os mocinhos vão na frente e as mocinhas vão atrás

                         B
E|---14--14--12--11-------222------------------|
B|---16--16--14--12-------444------------------|
G|------------------------444------------------|
D|------------------------444------------------|
A|------------------------222------------------|
e|------------------------xxx------------------|

                             B
E|---11--11--6---9--7--7--7----222------------------|
B|---12--12--7--11--9--9--9----444------------------|
G|-----------------------------444------------------|
D|-----------------------------444------------------|
A|-----------------------------222------------------|
e|-----------------------------xxx------------------|

B
Meu mestre é deus das alturas, o mundo é meu colégio
                                            F#
Eu segui de cá cantando, deus me deu o previlégio

Mato a cobra e mostro o pau, eu mato e não apedrejo
E                           F#           B
Dragão de sete cabeças também mato e não alejo
E                             F#
Estamos no fim do respeito, mundo velho não tem jeito
                      B
A vaca já foi pro brejo!

                         B
E|---14--14--12--11-------222------------------|
B|---16--16--14--12-------444------------------|
G|------------------------444------------------|
D|------------------------444------------------|
A|------------------------222------------------|
e|------------------------xxx------------------|

                                
E|---11--11--6---9--7--7--7---9--7---------------|
B|---12--12--7--11--9--9--9--11--9---------------|
G|-----------------------------------------------|
D|-----------------------------------------------|
A|-----------------------------------------------|
e|-----------------------------------------------|
00:00 / 00:00
Otros videos de esta canción
Repetir
Otros videos de esta canción
Composición de Alexandre / Fátima Leão / Jack / Lourival dos Santos / Netto / Tião Carreiro / Vicente P. Machado / Vieira / Vieirinha
Colaboración y revisión:
  • Lucas Oliveira
14 exhibiciones
    • ½ Tono
    • A
    • Bb
    • B
    • C
    • Db
    • D
    • Eb
    • E
    • F
    • F#
    • G
    • Ab
  • Agregar a la lista
    00:00 / 00:00
    OK