Cifra Club

Pra Que Entender?

Jorge & Mateus

Cifrado: Principal (guitarra y guitarra eléctrica)
tono: A (con acordes en la forma de G) Capotraste en 2ª casa
Intro 2x: G  D  C9
        G               D              C9
E|-----7----7-----------5----5----------2---3------|
B|--/8----8----8----/7-----7---7------3h5------/5~-|
G|-------------------------------------------------|
D|-------------------------------------------------|
A|-------------------------------------------------|
E|-------------------------------------------------|
        G               D          C9
E|-----7----7---------5----5------8p7------------|
B|--/8----8--8----/7-----7---7---x-----8~~-------|
G|-------------------------------x---------7/9~~-|
D|-----------------------------------------------|
A|-----------------------------------------------|
E|-----------------------------------------------|

Verso (Abafado):
Em
  O que tem por trás desse sorriso
C9
  Que me deixa fissurado em você
Em
  É um misto de desejo e vício
C9
  Já tentei, mas não consigo entender

[Pré-Refrão] 
G                      D9
  Toda vez que eu te encontro
          C9
Sinto os pés fora do chão
G                   D9
 Toda vez que eu te olho
        C9
Não consigo dizer não

Refrão 2x:
Am
 Por mais que eu queira
                            G
Não consigo mais pensar em nada
Am
 Quando eu notei, já era amor
             G
Eu não imaginava

                 Am ( G/B ) C9
Que eu fosse querer
       G (Riff 1)
Era você
              Am ( G/B ) C9
Pra quê entender
                G (Riff 1)
Eu tô amando você
[Riff 1] 
E|---------------------------------|
B|---------------------------------|
G|-/-7--7--7--7--5--5--5--4--4--4--|
D|-/-9--9--9--9--7--7--7--5--5--5--|
A|---------------------------------|
E|---------------------------------|

Passagem 2x:
Em
 Na na na na na

 Na na na na na
C9
 Na na na na na

 Na na na na na

[Pré-Refrão] 
G                      D9
  Toda vez que eu te encontro
          C9 (Riff 2)
Sinto os pés fora do chão
G                   D9
 Toda vez que eu te olho
        C9
Não consigo dizer não
[Riff 2] 
E|--------------------|
B|--1p0---1/3~~--1--0-|
G|------2-------------|
D|--------------------|
A|--------------------|
E|--------------------|

Refrão 2x:
Am
 Por mais que eu queira
                            G
Não consigo mais pensar em nada
Am
 Quando eu notei, já era amor
             G
Eu não imaginava

                 Am ( G/B ) C9
Que eu fosse querer
       G (Riff 1)
Era você
              Am ( G/B ) C9
Pra que entender
                G (Riff 1)
Eu tô amando você.

Passagem - Final 2x:
Em
 Na na na na na

 Na na na na na
C9
 Na na na na na

 Na na na na na

( Em )
Sanfona - Durante Passagens:
E|-----------------------------------10-8-7-8-7~\|
B|-8-8-8-7-8~--8-8-8-7-8~--8-8-8-7-8~------------|
G|-----------------------------------------------|
D|-----------------------------------------------|
A|-----------------------------------------------|
E|-----------------------------------------------|
00:00 / 00:00
Otros videos de esta canción
Repetir
Otros videos de esta canción
Composición de Marcelo Melo / Theo Jose / Vivi Abreu
Colaboración y revisión:
  • Victor Paciesny
  • Vinícius Dias
  • caio pereira
629 exhibiciones
  • Simplificar cifrado
    • ½ Tono
    • A
    • Bb
    • B
    • C
    • Db
    • D
    • Eb
    • E
    • F
    • F#
    • G
    • Ab
  • Agregar a la lista
    00:00 / 00:00
    Capítulos
    • Início
    • Acordes da música
    • Tocando a música
    • Tocando Introdução e Primeira parte
    • Ensinando ritmo padrão
    • Encerramento
    OK