Cifra Club

Pra Ter o Seu Amor

Jorge & Mateus

Chords: Versão 3 (acoustic and electric guitars)
tone: G
Intro: ( G   D/F#   Bm ) C   G   D/F#   Em ( Em   D   G ) C   G   D/F# ( C   D   C ) G   D/F#

E|-------------------7h8-10---10-xx-7-xx-10-xx-7-------------------------|
B|--7h8-7------------------------------------------7-7-8-8h10-8-7-7h8-8--|
G|----------7-7h9-9------------------------------------------------------|
D|-----------------------------------------------------------------------|
A|-----------------------------------------------------------------------|
E|-----------------------------------------------------------------------|

E|-------------------7h8-10---10-xx-7-xx-----------7h8-7----------10~~---|
B|--7h8-7---------------------------------10-xx-7--------10-8------------|
G|-----------7-7h9-9-------------------------------------------7---------|
D|-----------------------------------------------------------------------|
A|-----------------------------------------------------------------------|
E|-----------------------------------------------------------------------|

G
Agora já não tem mais jeito
                D/F#
Amar até seus defeitos não dá pra fugir
      Em                                       C
Se eu tenho um milhão de motivos pra te conquistar

Eu não vou desistir
 G
Você é frio, é calor
           D/F#
É febre de amor, saudade de paixão
  C                     D       G
Eu sigo sempre rumo ao seu coração

Refrão:
( G   Am   Bm ) C
Pra ter o seu amor
    G
Eu viajei pelo seu mundo
                   D/F#
Me vi com seus olhos
                         Em
Descobri quem sou, ái ái ái

( Em   D   Bm ) C
Pra ter o seu amor
  G                     D/F#
Te pedi pra Deus de presente
                 C  D
e pra me ver contente
            G
Ele te inventou

Intro: ( G   D/F#   Bm ) C   G   D/F#   Em ( Em   D   G ) C   G   D/F# ( C   D   C ) G   D/F#

(repete tudo)

Final: C   D/F#   G
00:00 / 00:00
Other videos of this song
Repeat
Other videos of this song
Composed by Dudu Borges / Euler Coelho / Fred Liel / Jorge Barcelos / Wendell Vieira
Collaboration and Review:
  • Lucas Gonçalves
51 views
    • ½ Tone
    • A
    • Bb
    • B
    • C
    • Db
    • D
    • Eb
    • E
    • F
    • F#
    • G
    • Ab
  • Add to list
    00:00 / 00:00
    OK