Cifra Club

Aprenda

Se Eu Pedir Cê Volta

Jorge e Mateus

Tablatura: Principal (guitarra)
tono: D
(intro)

(solo)

(parte 1)
E|---------------------------------------------------|
B|-5-7-5---------------2-3-5-7-5---------------2-3---|
G|-------7-7\4-4-4-2-4-----------7-7\4-4-4-2-4-------|
D|---------------------------------------------------|
A|---------------------------------------------------|
E|---------------------------------------------------|

(parte 2)
E|---------------------------------------------------|
B|-5-7-5-------8p7-----------------------------------|
G|-------7-7/9-----9-7-------------------------------|
D|---------------------7/9-7-9----7------------------|
A|-----------------------------10--------------------|
E|---------------------------------------------------|

(base solo) G Bm E G A

(primeira parte)
                 G                   D
Eu nem lembrava mais o gosto do seu beijo
                 G           D
Há tempo que a gente tava separado
             G                  Em
Eu nem imaginava o quanto te desejo
                     G                 A
Pensei que o nosso amor era caso encerrado

(segunda parte)
                  D
Foi só te ver de novo pra eu perceber
               Bm
Que o meu coração,só sabe te querer
              G                 Em             A
bateu uma saudade,uma louca vontade de amar você

(refrão)
                G
Se eu pedir cê volta pro meu coração
              Bm
pelo amor de Deus não me diga não
               E                G                 A
vem que tá na hora tá aberta a porta pra você entrar

                G
Se eu pedir cê volta pro meu coração
              Bm
pelo amor de Deus não me diga não
               E              A             D
vem que tá na hora a hora é agora pra você voltar

(*agora a música repete desde a intro)

(refrão final)
                G
Se eu pedir cê volta pro meu coração
              Bm
pelo amor de Deus não me diga não
               E                G                 A
vem que tá na hora tá aberta a porta pra você entrar

                G
Se eu pedir cê volta pro meu coração
              Bm
pelo amor de Deus não me diga não
               E              A             D
vem que tá na hora a hora é agora pra você voltar

( G D D7M(9)/F# )

(solo final)
E|-----2-3-3-2-------------|
B|-3-5---------5-3-3-2-3---|
G|-------------------------|
D|-------------------------|
A|-------------------------|
E|-------------------------|
Composição de Fabio Viana / Renato Barros
463 reproducciones
  • Simplificar cifra
    • ½ Tono
    • A
    • Bb
    • B
    • C
    • Db
    • D
    • Eb
    • E
    • F
    • F#
    • G
    • Ab
  • Adicionar à lista

    0 comentarios

    Ver todos os comentários
    00:00 / 00:00
    outros vídeos desta música
    repetir qualidade Automático
    Outros vídeos desta música
    00:00 / 00:00
    Automático
    Capítulos
    • Início
    • Dicas iniciais
    • Tocando trecho da música
    • Acordes da base do solo (intro)
    • Tocando solo (intro)
    • Ensinando solo (parte 1)
    • Ensinando solo (parte 2)
    • Ensinando ritmo da base do solo (intro)
    • Acordes da primeira parte
    • Tocando primeira parte
    • Ensinando ritmo da primeira parte
    • Acordes da segunda parte
    • Tocando segunda parte
    • Acordes do refrão
    • Tocando refrão
    • Ensinando ritmo do refrão
    • Ensinando solo final
    • Encerramento
    OK