Cifra Club

Aprenda

Seu Amor Me Tem

Jorge e Mateus

Tablatura: Principal (guitarra)
tono: D
[Intro] D  A  Bm  G
        D  A  Bm  G

E|----------------------------------------------------|
B|-12~-----10~-----7--10------------------------------|
G|------------------------7-9~------------------------|
D|----------------------------------------------------|
A|----------------------------------------------------|
E|----------------------------------------------------|

E|----------------------------------------------------|
B|---------10~---------10~---------10~---------10~----|
G|-9h11-11~----9h11-11~----9h11-11~----9h11-11~-------|
D|----------------------------------------------------|
A|----------------------------------------------------|
E|----------------------------------------------------|

E|----------------------------------------------------|
B|----10-------7--------------------------------------|
G|-7------7h9-----9p7---------------------------------|
D|--------------------9-9~----------------------------|
A|----------------------------------------------------|
E|----------------------------------------------------|

E|----------------------------------------------------|
B|---------10~---------10~---------10~---------10~----|
G|-9h11-11~----9h11-11~----9h11-11~----9h11-11~-------|
D|----------------------------------------------------|
A|----------------------------------------------------|
E|----------------------------------------------------|

E|----------------------------------------------------|
B|----10-------7--------10/12~------------------------|
G|-7------7h9-----9p7---------------------------------|
D|--------------------9-------------------------------|
A|----------------------------------------------------|
E|----------------------------------------------------|

[Primeira Parte]

Bm                    D
  Tá tudo certo se você está por perto
       Bm
Meu deserto tem areia e mar
                    D
Tão evidente que a gente se pertence
             Bm
Eu sempre estou onde você está
A                         G     
  Eu sempre estou onde você está

( Bm )

Bm                    D
  O movimento do seu corpo
                        Bm
O seu olhar, seu jeito louco

Sempre me seduz
                          D
E nesse quarto eu me completo
                  Bm
Me esvazio, te enxergo quando apago a luz

[Pré-Refrão]

Bm               D
  O seu amor me tem
A                G
  O seu amor me faz tão bem
Bm               D
  O seu amor me tem
A                      G
  E desse amor eu sou refém

[Refrão]

Em                          G
  De um ato estranho muito louco
                   D
Parece que em tão pouco tempo
          A
Meu sentimento é seu
Em                     G
  Eu acho tudo tão perfeito
                    D           
Quer saber eu só lamento o tempo 
          A
Que a gente perdeu

Em                          G
  De um ato estranho muito louco
                   D
Parece que em tão pouco tempo
          A
Meu sentimento é seu
Em                     G
  Eu acho tudo tão perfeito
                    D            
Quer saber eu só lamento o tempo 
          A              G
Que a gente perdeu, não se conheceu

[Solo] Em  Bm  D  A  Em  Bm  D  A
       Em  Bm  D  A  Em  Bm  D  A  G

[Pré-Refrão]

Bm               D
  O seu amor me tem
A                G
  O seu amor me faz tão bem
Bm               D
  O seu amor me tem
A                      G
  E desse amor eu sou refém

[Refrão]

Em                          G
  De um ato estranho muito louco
                   D
Parece que em tão pouco tempo
          A
Meu sentimento é seu
Em                     G
  Eu acho tudo tão perfeito
                    D           
Quer saber eu só lamento o tempo 
          A
Que a gente perdeu

Em                          G
  De um ato estranho muito louco
                   D
Parece que em tão pouco tempo
          A
Meu sentimento é seu
Em                     G
  Eu acho tudo tão perfeito
                    D            
Quer saber eu só lamento o tempo 
          A              G
Que a gente perdeu, não se conheceu

[Final]  Bm

E|----------------------------------------------------|
B|----------------------------------------------------|
G|-------7-------7------------------------------------|
D|-7h9-9---7h9-9---7-7--------------------------------|
A|----------------------------------------------------|
E|----------------------------------------------------|
Composição de Marcelo Melo / Theo Jose / Vivi Abreu
41 reproducciones
    • ½ Tono
    • A
    • Bb
    • B
    • C
    • Db
    • D
    • Eb
    • E
    • F
    • F#
    • G
    • Ab
  • Adicionar à lista

    0 comentarios

    Ver todos os comentários
    00:00 / 00:00
    outros vídeos desta música
    repetir qualidade Automático
    Outros vídeos desta música
    00:00 / 00:00
    Automático
    OK