Cifra Club

Aprenda

Sorte Pra Nós

Jorge e Mateus

Tablatura: Principal (guitarra)
tono: D
Bm         A        G        D
Vem passar a vida comigo pra sempre
Bm              A         G           D
Veja o céu que incrível se abrindo pra gente
Em                     Bm
Eu vou te mostrar que o amor é bem mais que conheceu
A                G               A
Você e eu é como se fosse o sol oh oooh

Refrão:
      D
Não quero tudo de uma vez
      A
Só quero sorte pra nós
   Em
Amor e paz
             G     A
E o resto a gente corre atrás

E|-----------------------------------------------|
B|--2-4/6-4--2-2--2-4-4/6---2-2-2-4-4-4/6\4-2----|
G|-------------------------------------------3---|
D|-----------------------------------------------|
A|-----------------------------------------------|
E|-----------------------------------------------|

E|------------------------------------|
B|--4-6-4----4-6-4------4-64------4---|
G|-------6-3-----6-3-------6-3--------|
D|------------------------------------|
A|------------------------------------|
E|------------------------------------|
Composição de Filipe Escandurras / Matheus Aleixo
72 reproducciones
    • ½ Tono
    • A
    • Bb
    • B
    • C
    • Db
    • D
    • Eb
    • E
    • F
    • F#
    • G
    • Ab
  • Adicionar à lista

    0 comentarios

    Ver todos os comentários
    00:00 / 00:00
    outros vídeos desta música
    repetir qualidade Automático
    Outros vídeos desta música
    00:00 / 00:00
    Automático
    OK