Cifra Club

Aprenda

Te Amar Foi Ilusão

Jorge e Mateus

Tablatura: Principal (guitarra)
tono: C
[Intro] G7 F  C  F  G7  F  Am  G7

[Solo]

E|---------7---8-7--7--|---------5----5-3-----------------|
B|-----8-10-8-----10-8-|------8---6-------6-5-6-----------|
G|-9-10------7---------|-9-10---5---5---------------------|
D|---------------------|----------------------------------|
A|---------------------|----------------------------------|
E|---------------------|----------------------------------|

E|-8-10-12-13-12-10-8-17-15-13-12-15-13-12----------------|
B|-----------------------------------------15-13-12-------|
G|--------------------------------------------------14-12-|
D|--------------------------------------------------------|
A|--------------------------------------------------------|
E|--------------------------------------------------------| 

C  C7+  C
Eu sei
                                     G7
Talvez eu tenha sufocado o teu sentimento
                                  F   F7+   F
Não consegui sintonizar teu pensamento
                               C
Sabendo que você queria arrancar de mim
             G7
Me deixando assim

 F    F4
Não sei
F                                          C    C7+   C
Será que eu me enganei o tempo todo com o seu olhar
                                     G/B       F  G
E apesar de tudo o que vivi eu me deixei levar
 F/A       G7       C     F Em Am G
Que ilusão foi te amar   

G7  Am  G/B  C   C7+    C
Vai en-con-trar
                                               G7
Alguém que você ame e que te faça o que fez comigo
          F
E vai chorar
                                            C/G  (Am)
Cada lágrima que um dia derramei por te querer
 (F)     G7
Por te amar
G7 Am  G/B  C   C7+    C
E vai sen-tir
                                      Am    G7
A dor da indiferença desse alguém que só te engana
          F                         G7
Vai aprender a viver e dar valor no amor
            C
De quem te ama

[Solo]

E|------------------------------------------------------------|
A|------------------------------------------------------------|
D|------------------------------------------------------------|
G|-----5-7-------7-----7-5-----7-7-5-7--4-5-7-7-4-5-4h5-------|
B|---------6-5-5---5-------5-5--------------------------------|
E|------------------------------------------------------------|

E|------------------------------------------------------------|
A|------------------------------------------------------------|
D|--7-5-7h9--7-7-5-7--5-7-------------------------------------|
G|------------------------5-7-------------------7-5-7---------|
B|----------------------------6-6h8-6-6-5-6-6h5---------------|
E|------------------------------------------------------------|

E|------------------------------------------------------------|
A|------------------------------------------------------------|
D|-----7-----5-7---7------------------------------------------|
G|-------5-7-----5---5--7-5-7---------------------------------|
B|----------------------------5-6-8---------------------------|
E|----------------------------------8-------------------------|
Colaboración y revision:
88 reproducciones
    • ½ Tono
    • A
    • Bb
    • B
    • C
    • Db
    • D
    • Eb
    • E
    • F
    • F#
    • G
    • Ab
  • Adicionar à lista

    0 comentarios

    Ver todos os comentários
    00:00 / 00:00
    outros vídeos desta música
    repetir qualidade Automático
    Outros vídeos desta música
    00:00 / 00:00
    Automático
    OK