Cifra Club

Aprenda

Te Amo Com Voz Rouca

Jorge e Mateus

Tablatura: Principal (guitarra)
Tom: C
Solo da introdução:

E|---------------12-------------------------|
B|-----13--13-------13----15b17-8-8-8-------|
G|9/12---12---12-------12-------9-9-9b10b9--|
D|------------------------------------------|
A|------------------------------------------|
E|------------------------------------------|

C        G         Am                 F
A gente passa por várias situações em um só dia
C        G              Am       F
Primeiro beija e depois briga
C         G           Am       F
Se ama e também faz intriga
C        G         Am
A gente forma um casalzinho assim
F
Meio sem juízo
C       G          Am            F
Você mimada e atrevida
C       G          Am            F
E eu tô nem aí pra vida

Dm                  F
Se me agride eu te beijo
                         C
Me maltrata, eu sempre esqueço
             G         (F              Em)
E me vejo novamente preso em seus abraços
Dm                  F
Tem gente que vira lembrança
                    C
Outros que viram passado
                  G                      F      G
Eu tô sempre me virando pra tá do seu lado

C
Seria pior não ter nunca mais
G                           Dm7
Seu mau humor me tirando a paz
     F      G
Mas 5 minutos depois
    C
Te provoco risos
Te beijo a força
G                       Dm7
Mais uma vez você me perdoa
      F           G              C
Diz "eu te amo" com voz rouca

Solo do meio da música:

E|---------------12-------------15-13-12h13--------------------17------------------------------------|
B|-----13--13-------13----15b17-15----------15b17b15-15h17-15~----15b17b15-15p12-------12------------|
G|9/12---12---12-------12--------------------------------------------------------14-12---------9/10-9|
D|---------------------------------------------------------------------------------------------------|
A|---------------------------------------------------------------------------------------------------|
E|---------------------------------------------------------------------------------------------------|
Compositor Debora Xavier / Euler Coelho / Fred Liel
Colaboración y revision:
140 reproducciones
    • ½ Tom
    • A
    • Bb
    • B
    • C
    • Db
    • D
    • Eb
    • E
    • F
    • F#
    • G
    • Ab
  • Adicionar à lista

    0 comentarios

    Mostrar mais comentários
    00:00 / 00:00
    outros vídeos desta música
    repetir qualidade Automático
    Outros vídeos desta música
    00:00 / 00:00
    Automático
    OK