Cifra Club

Tem Nada a Ver / Te Cuida Coração (Pot-Pourri)

Jorge & Mateus

Cifrado: Principal (guitarra y guitarra eléctrica)
tono: E
[Intro] E  G#7  A  E  F#7  B7

E|---------4-5-7~-4~--8~-4~-----------------|
B|---4-5-7----------------------------------|
G|-6----------------------------------------|
D|------------------------------------------|
A|------------------------------------------|
E|------------------------------------------|

E|--9~--7~--5~------12-12-12----------------|
B|-10~--9~--7~--7/9-------------------------|
G|------------------------------------------|
D|------------------------------------------|
A|------------------------------------------|
E|------------------------------------------|

E|------------------------------------------|
B|-----------9---------------9---------12~--|
G|------9-11---11-------9-11---11-9---------|
D|-9h11------------9h11-------------11------|
A|------------------------------------------|
E|------------------------------------------|

E|-----12----11---9---7---------------------|
B|------------------------------------------|
G|-/13----11----9---8-----------------------|
D|------------------------------------------|
A|------------------------------------------|
E|------------------------------------------|

[Primeira Parte]

             E
E alguém me disse que você falou
           B9
Que acha graça e tem pena de mim
           A                                  B9
Que não me ama que o nosso caso já chegou ao fim

E|-----12----11---9---7---------------------|
B|------------------------------------------|
G|-/13----11----9---8-----------------------|
D|------------------------------------------|
A|------------------------------------------|
E|------------------------------------------|

          E
E ao telefone não atende mais
    B9
E pra você agora tanto faz
         A
Se é verdade que você não quer
          B9
Responda se puder

[Pré-Refrão]

            C#m             G#7
Quem é que liga no meio da noite
                C#m
Diz que está sozinha
                      E7                  A
Quem é que nos meus braços fala que é só minha
               B7                E  B7
E chora de emoção na hora do prazer
          C#m               G#7
Porque será que você não assume
                C#m
Que eu sou seu homem
                E7               A
Porque o tempo todo fala no meu nome
                B7                  E  E7
Confessa que você não sabe me esquecer

[Refrão]

            A
Tem nada a ver
               B7                 C#m
Você é quem está fugindo da verdade
                E7            A
Parece que tem medo da felicidade
                B7                   E  E7
Você diz que não  seu corpo diz que sim
              A                B7
Tem nada a ver  a boca que me beija
        G#7         C#m
A mão que me apedreja
                   E7               A
Se deita em minha cama depois me difama
                    B7                   E  B7
Diz que não me quer   mas vive atrás de mim

[Solo] E  G#7  A  E  F#7  B7

E|---------4-5-7~-4~--8~-4~-----------------|
B|---4-5-7----------------------------------|
G|-6----------------------------------------|
D|------------------------------------------|
A|------------------------------------------|
E|------------------------------------------|

E|--9~--7~--5~------12-12-12----------------|
B|-10~--9~--7~--7/9-------------------------|
G|------------------------------------------|
D|------------------------------------------|
A|------------------------------------------|
E|------------------------------------------|

E|------------------------------------------|
B|-----------9---------------9---------12~--|
G|------9-11---11-------9-11---11-9---------|
D|-9h11------------9h11-------------11------|
A|------------------------------------------|
E|------------------------------------------|

E|-----12----11---9---7---------------------|
B|------------------------------------------|
G|-/13----11----9---8-----------------------|
D|------------------------------------------|
A|------------------------------------------|
E|------------------------------------------|

[Primeira Parte]

             E
E alguém me disse que você falou
           B9
Que acha graça e tem pena de mim
           A                                  B9
Que não me ama que o nosso caso já chegou ao fim

E|-----12----11---9---7---------------------|
B|------------------------------------------|
G|-/13----11----9---8-----------------------|
D|------------------------------------------|
A|------------------------------------------|
E|------------------------------------------|

         E
E o telefone não atende mais
         B9
E pra você agora tanto faz
         A
Se é verdade que você não quer
          B9
Responda se puder

[Pré-Refrão]

            C#m             G#7
Quem é que liga no meio da noite
                C#m
Diz que está sozinha
                      E7                  A
Quem é que nos meus braços fala que é só minha
               B7                E  B7
E chora de emoção na hora do prazer
          C#m               G#7
Porque será que você não assume
                C#m
Que eu sou seu homem
                E7               A
Porque o tempo todo fala no meu nome
                B7                  E  E7
Confessa que você não sabe me esquecer

[Refrão]

            A
Tem nada a ver
               B7                 C#m
Você é quem está fugindo da verdade
                E7            A
Parece que tem medo da felicidade
                 B7                   E  E7
Você diz que não   seu corpo diz que sim
               A                B7
Tem nada a ver   a boca que me beija
        G#7         C#m
A mão que me apedreja
                   E7               A
Se deita em minha cama depois me difama
                    B7                   E  E4  E  E4
Diz que não me quer   mas vive atrás de mim

[Segunda Parte]

E                   
  Já cansei de avisar
B9              
   Pro meu coração
A9                  
   Pra ele tomar cuidado
E              
  Com essa paixão

  Amor quando é demais
B9               
   É um campo minado
A9                  
   Se explodir um adeus
E                  
  Coração sai machucado

[Terceira Parte]

    G#7               C#m
O amor é bonito é gostoso
           G#7
Mas é perigoso
                C#m
Tem que saber amar
   F#7                 B
Ficar sem amor não consigo
                F#7
Sei que é um perigo
               B
Posso me machucar

   A9                B9
E vai com calma coração
    C#m               A9
Te cuida com essa paixão

E|------------------------------------------|
B|------------------------------------------|
G|------------------------------------------|
D|-2h4-2------------------------------------|
A|-------4-2--------------------------------|
E|-----------b4-0---------------------------|

[Pré-Refrão]

    E
O amor é lindo e gostoso
           B7
Mas é perigoso
          E
Te cuida coração

O amor é lindo e gostoso
           B7
Mas é perigoso
          E
Te cuida coração

[Refrão]

               B
Coração apaixonado
          A9
Só quer amor
                 E
Não tem medo de nada

Não sabe o que é certo
                    B7
Não sabe o que é errado

Só quer amor
               E
Coração apaixonado

               B
Coração apaixonado
          A9
Só quer amor
                 E
Não tem medo de nada

Não sabe o que é certo
                    B7
Não sabe o que é errado

Só quer amor
               E
Coração apaixonado

( E  F#m  G )

[Terceira Parte]

    G#7               C#m
O amor é bonito é gostoso
           G#7
Mas é perigoso
                C#m
Tem que saber amar
   F#7                 B
Ficar sem amor não consigo
                F#7
Sei que é um perigo
               B
Posso me machucar

   A9                B9
E vai com calma coração
    C#m               A9
Te cuida com essa paixão

E|------------------------------------------|
B|------------------------------------------|
G|------------------------------------------|
D|-2h4-2------------------------------------|
A|-------4-2--------------------------------|
E|-----------b4-0---------------------------|

[Pré-Refrão]

    E
O amor é lindo e gostoso
           B7
Mas é perigoso
          E
Te cuida coração

O amor é lindo e gostoso
           B7
Mas é perigoso
          E
Te cuida coração

[Refrão]

               B
Coração apaixonado
          A9
Só quer amor
                 E
Não tem medo de nada

Não sabe o que é certo
                    B7
Não sabe o que é errado

Só quer amor
               E
Coração apaixonado

               B
Coração apaixonado
          A9
Só quer amor
                 E
Não tem medo de nada

Não sabe o que é certo
                    B7
Não sabe o que é errado

Só quer amor

Coração apaixonado

[Final] A9  G#m  F#m 
        E9  F#m  G#m
        A9  G#m  F#m  E 

E|------------------------------------------|
B|------------------------------------------|
G|------------------------------------------|
D|-7-6-4----4-6--7-6-4----------------------|
A|-------7--------------7-7-7\--------------|
E|------------------------------------------|
00:00 / 00:00
Otros videos de esta canción
Repetir
Otros videos de esta canción
Composición de Ana Paula / Carlos Colla / Elias Muniz
Colaboración y revisión:
  • Thiago Almeida
  • Rodrigo Costa
  • Sérgio Souza
4.422 exhibiciones
  • Simplificar cifrado
    • ½ Tono
    • A
    • Bb
    • B
    • C
    • Db
    • D
    • Eb
    • E
    • F
    • F#
    • G
    • Ab
  • Agregar a la lista
    00:00 / 00:00
    OK