Cifra Club

Aprenda

Tem Nada a Ver / Te Cuida Coração (Pot-Pourri)

Jorge e Mateus

Tablatura: Principal (guitarra)
tono: E
[Intro] E  G#7  A  E  F#7  B7

E|----------4-5-7-4~--8~-4~----9~--7~--5~------12-12-12~-|
B|------5-7-------------------10~--9~--7~-7/9------------|
G|--5-7--------------------------------------------------|
D|-------------------------------------------------------|
A|-------------------------------------------------------|
E|-------------------------------------------------------|

E|-----------------~---------------|
B|-------7-9~-7~--------7-9~-7--12~|
G|---7-9------------7-9-------9----|
D|-9--------------9----------------|
A|---------------------------------|
E|---------------------------------|

          E
Alguém me disse que você falou 
         B9
Que acha graça e tem pena de mim 
           A                                 B9
Que não me ama que o nosso caso já chegou ao fim  

Lick 1

E|------12---11----9---7~--|
B|-------------------------|
G|-11/13---11---10---8-----|
D|-------------------------|
A|-------------------------|
E|-------------------------|

       E
Ao telefone não atende mais 
          B9
Que pra você agora tanto faz 
        A
Se é verdade que você não quer 
         B9
Responda se puder 
           C#m              G#7
Quem é que liga no meio da noite 
               C#m
Diz que está sozinha 
                    E7                    A
Quem é que nos meus braços fala que é só minha 
              B7                 E  B7
E chora de emoção na hora do prazer 
          C#m                 G#7
Porque será que você não assume 
                C#m
Que eu sou seu homem 
               E7                   A
Porque o tempo todo fala no meu nome 
               B7                   E  E7
Confessa que você não sabe me esquecer 
               A
Tem nada a ver 
              B7     G#7         C#m
Você é quem está fugindo da verdade 
               E7              A
Parece que tem medo da felicidade 
                 B7                    E  E7
Você diz que não,   teu corpo diz que sim 
               A               B7
Tem nada a ver,  a boca que me beija 
      G#7        C#m
A mão que me apedreja 
                  E7                A
Se deita em minha cama depois me difama 
                   B7                    E  B7
Diz que não me quer   mas vive atrás de mim

E|-4~-5-5--444-5-5--444-5--5-4-------|
B|-5~-5-5--555-5-5--555-5--5-5-------|
G|-4~-4-4--444-4-4--444-4--4-4--5-5--|
D|------------------------------6-4--|
A|------------------------------7-6--|
E|-----------------------------------|

E                   
Já cansei de avisar
B9              
Pro meu coração
A9                  
Pra ele tomar cuidado
E              
Com essa paixão
E                    
O amor quando é demais
B9               
É um campo minado
A9                  
Se explodir um adeus
E                  
Coração sai machucado

   G#7               C#m
O amor é bonito, é gostoso
          G#7
Mas é perigoso
              C#m
Tem que saber amar
 F#7                 B
Ficar sem amor não consigo
               F#7
Sei que é um perigo
            B
Posso me machucar
A9            B9
Vai com calma coração
 C#m               A9
Se cuida com essa paixão

E|-----------------|
B|-----------------|
G|-----------------|
D|-2h4-2-----------|
A|-------4-2-------|
E|-----------3^4-0-|

  E
O amor é lindo e gostoso
         B7
Mas é perigoso            
            E
Te cuida coração    

              B
Coração apaixonado
          A9
Só quer amor
                E
Não tem medo de nada
                 E
Não sabe o que é certo
                   B7
Não sabe o que é errado
Só quer amor
              E
Coração apaixonado

( E  F#m  G )

[Final] A9  G#m  F#m  E9  F#m  G#m
        A9  G#m  F#m  E 

E|---------------------------------|
B|---------------------------------|
G|---------------------------------|
D|-7--6--4-----4--6--7-6-4---------|
A|----------7--------------7-7-7/0-|
E|---------------------------------|
Colaboración y revision:
  • Rodrigo Costa
  • Sérgio Souza
238 reproducciones
  • Simplificar cifra
    • ½ Tono
    • A
    • Bb
    • B
    • C
    • Db
    • D
    • Eb
    • E
    • F
    • F#
    • G
    • Ab
  • Adicionar à lista

    0 comentarios

    Ver todos os comentários

    ¿Conseguiste tocar?

    13 Tocaram 0 Ainda não

    Grave um vídeo tocando Tem Nada a Ver / Te Cuida Coração (Pot-Pourri) e nos envie!

    00:00 / 00:00
    outros vídeos desta música
    repetir qualidade Automático
    Outros vídeos desta música
    00:00 / 00:00
    Automático
    OK