Cifra Club

Tempo Ao Tempo

Jorge & Mateus

Cifrado: Completissima-original (guitarra y guitarra eléctrica)
tono: D
(intro) A E F#m D (2x)
        D E

E|--12--x--12-----------------10------------12--x--12----------------10--12*|
B|--12--x--14-----------------10--14--------12--x--14----------------10-----|
G|--14--x--14--13h14---9/11---11-----12h14--14--x--14--13h14---9/11---------|
D|--14--x--14---------10/12---12------------14--x--14---------10/12---------|
A|------x---------------------------------------x---------------------------|
E|------x---------------------------------------x---------------------------|

A          A9               A             A9    D D9 D D9
Você já percebeu que quando eu te vejo perco o chão
        A         A9
Que o simples fato de te ouvir
     A        A9      D D9 D D9
me faz perder toda razão

 F#m
Quando você chega
       E                          A
Minha mão transpira, minha mente pira
                     D
Eu já não sei o que fazer
   F#m                     E
Já vi que esse lance tá ficando chato
              A                      D
Pois até meus atos não consigo mais conter

     A     ( A5 G5 )           E
Não ligo se você nem tá ligando
                      D
Nem tão pouco se importando
          D9            D
Mesmo assim vou te dizer

(refrão)
    A
Já dei tempo ao tempo
       E
Mas o tempo não me ajuda
    D
Se tento te esquecer,

E|-10-9-10-10/12--|
B|----------------|
G|----------------|

        D
Só faço te querer

E|-10-9-7-5-------|
B|----------------|
G|----------------|

    A
Tá no meu pensamento
      E
Sentimento que não muda
    D
Tô louco pra te ver

E|9h10-9-----9h10-9-----9h10-9-----9h10-9-----|
B|-------10---------10---------10---------10--|
G|--------------------------------------------|

    D           A  E D
Só quero amar você

B|---14------14-----------12-----12----------10---------10----------10---8/10-|
G|-----14------14-----------13------13---------11---------11----------11------|
D|14------14-------14--14------14-----14--12-----12--12-----12--12------------|

A          A9               A             A9    D D9 D D9
Você já percebeu que quando eu te vejo perco o chão

E|------10-----9-----7---------------|
B|--------10----10----10-------------|
g|9/11------11----11----11--9/11-14--|

        A         A9
Que o simples fato de te ouvir
     A        A9      D D9 D D9
me faz perder toda razão

E|----------------------------5------7------9|
B|--5--------7------9----------5------5------|
G|----6--------6------6----------------------|
D|7--------7------7--------7------7------7---|

 F#m
Quando você chega
       E
Minha mão transpira,

E|---------|
B|--10/12--|
G|---------|

        A
minha mente pira

E|---------|
B|--12/14--|
G|---------|

                     D
Eu já não sei o que fazer
   F#m                     E
Já vi que esse lance tá ficando chato
              A                      D
Pois até meus atos não consigo mais conter

     A     ( A5 G5 )           E
Não ligo se você nem tá ligando
                      D
Nem tão pouco se importando
                D
Mesmo assim vou te dizer

(refrão 2x)
    A
Já dei tempo ao tempo
       E
Mas o tempo não me ajuda
    D
Se tento te esquecer,

E|--10-9-10-10/12--|
B|-----------------|
G|-----------------|

        D
Só faço te querer

E|--10-9-7-5--|
B|------------|
G|------------|

    A
Tá no meu pensamento
      E
Sentimento que não muda
    D
Tô louco pra te ver

E|9h10-9-----9h10-9-----9h10-9-----9h10-9-----|
B|-------10---------10---------10---------10--|
G|--------------------------------------------|

    D           A  E D
Só quero amar você

     A     ( A5 G5 )           E
Não ligo se você nem tá ligando
                      D
Nem tão pouco se importando
                D
Mesmo assim vou te dizer

( A   A9   D9   E )

    A
Tá no meu pensamento
      E
Sentimento que não muda
    D
Tô louco pra te ver (2x)

E|9h10-9-----9h10-9-----9h10-9-----9h10-9---|
B|-------10---------10---------10---------10|
G|------------------------------------------|

    D           A  E D
Só quero amar você
     D           A  E D
Só quero amar você
Composición de Anderson Oliveira / Junior Cesar Sousa / Raynner Sousa
Colaboración y revisión:
  • Paulo Ricardo
  • André Dantas
25 vistas
  • Simplificar cifrado
    • ½ Tono
    • A
    • Bb
    • B
    • C
    • Db
    • D
    • Eb
    • E
    • F
    • F#
    • G
    • Ab
  • Agregar a la lista

    0 comentarios

    Ver todos los comentarios
    00:00 / 00:00
    Outros vídeos desta música
    Repetir Calidad Automático
    Outros vídeos desta música
    00:00 / 00:00
    Automático
    OK