Cifra Club

Aprenda

Vou Fazer Pirraça (part. Asa de Águia)

Jorge e Mateus

Tablatura: Principal (guitarra)
Tom: E
Intro: A9  B7  E  A9  B7  E  B7  A9  E  A9  E  B7
E|----------------------------------------------------------|
B|----------------------------------------------------------|
G|--------------6-----6-8-9-9-9-9---------------------------|
D|------6-7---9---9-----------------------------------------|
A|--7-9-----------------------------------------------------|
E|----------------------------------------------------------|

E|-12-11-----------------------12-11---------------------|
B|-------12--14-12/14\12--------------12-14-12-12-12-----|
G|-----------------------13------------------------------|
D|-------------------------------------------------------|
A|-------------------------------------------------------|
E|-------------------------------------------------------|

E|--------------------------------------------------------------------------|
B|------9/10^-10-10-10-9-----------------9-10^-10-10-10/9-------------------|
G|-9-11-------------------11-9-----9-11--------------------11-9----9-8------|
D|---------------------------------------------------------------------11/9-|
A|--------------------------------------------------------------------------|
E|--------------------------------------------------------------------------|

E                      C#m
Vou pagar promessa de joelhos
A                B7
Só pra esquecer você
E                      C#m
Vou passar uns dias lá na lua
A                     B7
Eu não quero mais te ver

G#m               C#m
Vou falar pro meu coração bater o pé
G#m              C#m
Pra não morrer de paixão não quero
A                   B7
Mais este amor, que me faz tão mal
A                    B7             E
Chega de sofrer, Adeus, ponto final

Refrão:
                A    B7        E
Não vou mais chorar, como chorei
           A           B7        E
Nem me lembrar, que um dia te amei
          G#m             C#m
Bye-bye tristeza, adeus solidão
             A      B7       E
Vou fazer pirraça pro seu coração

(Solo)

(Repete Tudo)
379 reproducciones
    • ½ Tom
    • A
    • Bb
    • B
    • C
    • Db
    • D
    • Eb
    • E
    • F
    • F#
    • G
    • Ab
  • Adicionar à lista

    0 comentarios

    Mostrar mais comentários
    00:00 / 00:00
    outros vídeos desta música
    repetir qualidade Automático
    Outros vídeos desta música
    00:00 / 00:00
    Automático
    OK