Cifra Club

Presentimiento

Jorge Negrete

Cifrado: Principal (guitarra y guitarra eléctrica)
tono: Am

Intro
     Em          E7             Am       Em          B7         Em
E|-7--12--7-7--8--10-8-12-12-12--10--8--12-12-12-7-7--7--------------|
B|-9--12--9-9--9--12-9-13-13-13--12-10--13-13-13-8-8-8-8-8/10-10-----|
G|-------------------------------------------------------------------|

E|--8-7-5---7-5---------------------|
B|-------8------8-7---5-------------|
G|------------------8-----5-4-------|
D|----------------------------5--2--|
A|----------------------------------|

Em                           B7
Sin saber que existías, te deseaba,
 Am             B7        Em
Antes, de conocerte, te adiviné,
   E7                                 Am
llegaste en el momento en que te esperaba,
 Em                B7               Em
no hubo sorpresa alguna, cuando te hallé.

Em                           B7
Sin saber que existías, te deseaba,
 Am             B7        Em
Antes, de conocerte, te adiviné,
   E7                                 Am
llegaste en el momento en que te esperaba,
 Em                B7                  E
no hubo sorpresa alguna, cuando te hallé.


CORO
E                                B7
El día en que cruzaste, por mi camino,
 A                B7              E
tuve el presentimiento de algo fatal,
 E7                          A
esos ojos me dije, son mi destino,
 B7                             E
esos brazos morenos, son mi dogal.
00:00 / 00:00
Otros videos de esta canción
Repetir
Otros videos de esta canción
Compositor no encontrado.
    • ½ Tono
    • Am
    • Bbm
    • Bm
    • Cm
    • C#m
    • Dm
    • Ebm
    • Em
    • Fm
    • F#m
    • Gm
    • G#m
  • Agregar a la lista
    00:00 / 00:00
    OK