Cifra Club

Contraste

Jorge Vercillo

Tablatura: Principal
reproducciones 32
Tono: C#
Intro:
E|-----------------------------------------------------------------
B|-5-------------------------------5-------------------------------
G|---5-7----5------------------------5-7----5-5--------------------
D|--------7----5-7----5-------------------7-----5-7----5-----------
A|------------------8----6-8-------------------------8----6-8------
E|---------------------------8-9------------------------------8-9--

E|-----------------------------------------------------------------
B|-8----------------------------------------8h9-9p8----------------
G|---8-10-----8-8--------------------------------------------------
D|---------10-----8-10-----10-----8--------------------------------
A|----------------------11-----11----9-11--------------------------
E|-----------------------------------------------------------------


[Intro:] F7M F7(9) Bb7M Bbm6 F7M F7(9) Bb7M Eb7(9) Ab7M Ab7(9) C#7M F#7(9)

F7M         F7(9)
Que imagem, que visão
Bb7M    Bbm6
obra de arte
F7M          F7(9)
Demoliu minha solidão
Bb7M       Eb7(9)
com seu guindaste
Ab7M       Ab7(9)      C#7M
De carinho e de clarão 
          F#7(9)        F7M
que faz contraste com a dor
             F7(9)
Peço quase em oração:
Bb7M      Eb7(9) A7  D7M Bb/C
-Nunca se afaste a...mor

         F7M
Tarde de praia
         Cm7
Na minha rede
B7(b9) B7(9) Bb7M
Tomara que caia
        Ab7M   Bb/C
Uma criatura assim
            F7M
Deus que me valha
           Cm7
Canto de sereia
B7(b9) B7(9) Bb7M
Rabo   de  arraia
          Ab7M    Bb/C
Noite de luar tem fim
        F7M
Eu dava tudo
         Cm7    B7(b9)  B7(9)
Você pra mim, tô feito
                Bb7M
Eu ganho o mundo
             Ab7M
Fui só mergulhar,
     A7M     Bb/C    F7M Bb/C
De repente sumiu de mim

Solo: C#/Eb Ab7M Ebm7 D7(b9) D7(9) C#7M B7M C#/Eb
Acordes para:
    Compositor: Jorge VerciloColaboración y revision:
    • Gustavo Fepi

    0 comentarios

      mostrar más comentarios

      ¿Conseguiste tocar?

      3tocaron0aún no

      ¡Graba un vídeo tocando Contraste y envianoslo!

      00:00 / 00:00
      outros vídeos desta música
      repetirqualidadeautomática
      Outro vídeos desta música
        00:00 / 00:00
        automática
        OK