Cifra Club

Homem Aranha

Jorge Vercillo

Tablatura: Principal (guitarra)
Tom: C
[Intro] F7+  Dm7/9  C7+  G/A  A7/9
        F7+  Dm7/9  C7+  Em7/9  Bb7/13  A7/5+
        F7+  Dm7/9  Bb7/9/13

[Solo Intro]

Parte 1 de 3

E|-------------------------------------------------------|
B|-------------------------------------------------------|
G|---5---5-7----5---5-7----2-----------------------------|
D|-5---5------5---5------2-------------------------------|
A|-------------------------------------------------------|
E|-------------------------------------------------------|

Parte 2 de 3

E|-------------------------------------------------------|
B|-------------------------------------------------------|
G|---5---5-7------5---5-7--------------------------------|
D|-5---5-----5--5---5--------2-3-------------------------|
A|-------------------------3-----------------------------|
E|-------------------------------------------------------|

Parte 3 de 3

E|-------------------------------------------------------|
B|-------------------------------------------------------|
G|---5---5-7----5---5-7----------------------------------|
D|-5---5------5---5------7-7-7-5-5-----------------------|
A|---------------------------------7-7-------------------|
E|-------------------------------------------------------|

    Am
Eu adoro andar no abismo
     G
Numa noite viril de perseguição
   F
Saltando entre os edifícios
G#7+  G#/A#
Vi você

     Am
Em poder de um fugitivo
       G
Que cercado pela polícia
         F
Te fez refém lá nos precipícios
        Em7/9         Bb7+
Foi paixão à primeira vista

     Am
Me joguei de onde o céu arranha
      G
Te salvando com a minha teia
           F
Prazer, me chamam de Homem-aranha
G#7+  G#/A#
Seu herói

D7       E7+
Hoje o herói aguenta o peso
C7             D7  Eb7
Das compras do mês
D7   E7+
No telhado, 
              C7        D7  Eb7
ajeitando a antena da tevê
F7+  E7+
Acordado a noite inteira 
Eb7+        G/A  A7/9
pra ninar bebê

             F7+
Chega de bandido pra prender
            Dm11/9
De bala perdida pra deter
               C7+
Eu tenho uma ideia
               G/A  A7/9
Você na minha tei..a

           F7+
Chega de assalto pra impedir
           Dm11/9
Seja em Brasília ou aqui
                   C7+  Em7/9
Eu tive a grande ideia
              Bb7/13  A7/5+
Você na minha teia

          F7+
Hoje eu estou nas suas mãos
             Dm11/9
Nessa sua ingênua sedução
                 C7+
Que me pegou na veia
             G/A  A7/9
Eu tô na tua teia

( F7+  Dm7  Bb7(9/13) )

[Solo] F7+  Dm7  C7M  Em7(9)  Bb7(13)  A7(13-)
reproducciones 3.205
Acordes para:

    0 comentarios

    mostrar más comentarios

    ¿Conseguiste tocar?

    28 tocaron 5 aún no

    ¡Graba un vídeo tocando Homem Aranha y envianoslo!

    00:00 / 00:00
    outros vídeos desta música
    repetir qualidade Automático
    Outros vídeos desta música
    00:00 / 00:00
    Automático
    OK