Cifra Club

Chasque Pra Dom Munhoz

José Claudio Machado

Cifrado: Principal (guitarra y guitarra eléctrica)
tono: G
E|---12-12-10---7-7-5----10-10--7---5-5-3-|---12-12-10---7-7-5--|---10--7----5-5-3--|
B|----------------------------------------|---------------------|-------------------|
G|-12------11-7-----5--11-------7-5-----4-|-12------11-7-----5--|-11----7--5-----4--|
D|----------------------------------------|---------------------|-------------------|
A|----------------------------------------|---------------------|-------------------|
E|----------------------------------------|---------------------|-------------------|

(G D7 G D7)

G             D7
Amigo Élbio Munhoz
                       Em
Meu chasque não tem floreio
                D7
Eu uso bombacha larga
                       G
E um chapéu de metro e meio
                   D7
Botas de garrão de potro
                  Em
Laço, pealo e gineteio
                D7
E me sustento pachola
                 G
Na serventia do arreio

(G D7 G D7)

G                     D7
Por voltas que a vida faz
                    G
Para açoitar um cristão
                 D7
Ando cortado dos trocos
                  G
Freio e pelego na mão
                 D7
Sem um cavalo de lei
                   G
Pra visitar meu rincão
                 D7
O nosso Caiboaté Grande
                 G
Que trago no coração

E|---12-12-10---7-7-5----10-10--7---5-5-3-|---12-12-10---7-7-5--|---10--7----5-5-3--|
B|----------------------------------------|---------------------|-------------------|
G|-12------11-7-----5--11-------7-5-----4-|-12------11-7-----5--|-11----7--5-----4--|
D|----------------------------------------|---------------------|-------------------|
A|----------------------------------------|---------------------|-------------------|
E|----------------------------------------|---------------------|-------------------|

(G D7 G D7)

 G              F
(a Tia Maria me disse
                      Bb
Que tua tropilha é de lei
                  Am
E o José Rodrigues Ramos
       D7                G
Confirmou quando eu pensei
               F
Em te pedir um cavalo
                  Bb
Nesses versos que criei
                     Am
Pra cantar em São Gabriel
      D7                G
Querência que sempre amei)

E|---12-12-10---7-7-5----10-10--7---5-5-3-|---12-12-10---7-7-5--|---10--7----5-5-3--|
B|----------------------------------------|---------------------|-------------------|
G|-12------11-7-----5--11-------7-5-----4-|-12------11-7-----5--|-11----7--5-----4--|
D|----------------------------------------|---------------------|-------------------|
A|----------------------------------------|---------------------|-------------------|
E|----------------------------------------|---------------------|-------------------|

(G D7 G D7)

G                D7
Entrega pro Tio Adil
                   Em
Lá na Costa do Lageado
                     D7
E diz pra Enilda e Silvinha
                   G
Que eu chegarei afogado
                    D7
Num borrachão de saudade
                  Em
Do tamanho do meu pago
                    D7
E a Negra Juci que espere
                       G
Com um chimarrão bem cevado

E|---12-12-10---7-7-5----10-10--7---5-5-3-|---12-12-10---7-7-5--|---10--7----5-5-3--|
B|----------------------------------------|---------------------|-------------------|
G|-12------11-7-----5--11-------7-5-----4-|-12------11-7-----5--|-11----7--5-----4--|
D|----------------------------------------|---------------------|-------------------|
A|----------------------------------------|---------------------|-------------------|
E|----------------------------------------|---------------------|-------------------|

(G D7 G D7)

G                   D7
Don Élbio guarde consigo
                      G
Que um dia arranco do peito
                  D7
E pago esta obrigação
                  G
Que me deixa satisfeito
                D7
O pêlo é da tua conta
                   G
Baio, rosilho, eu aceito
                     D7
Que o velho Moacir Cabral
                   G
Me fez assim por direito

E|---12-12-10---7-7-5----10-10--7---5-5-3-|---12-12-10---7-7-5--|---10--7----5-5-3--|
B|----------------------------------------|---------------------|-------------------|
G|-12------11-7-----5--11-------7-5-----4-|-12------11-7-----5--|-11----7--5-----4--|
D|----------------------------------------|---------------------|-------------------|
A|----------------------------------------|---------------------|-------------------|
E|----------------------------------------|---------------------|-------------------|

(G D7 G D7)

 G              F
(a Tia Maria me disse
                      Bb
Que tua tropilha é de lei
                   Am
E o José Rodrigues Ramos
      D7                 G
Confirmou quando eu pensei
               F
Em te pedir um cavalo
                  Bb
Nesses versos que criei
                       Am
Pra cantar em São Gabriel
       D7               G
Querência que sempre amei)
Compositor não encontrado.
283 vistas
    • ½ Tono
    • A
    • Bb
    • B
    • C
    • Db
    • D
    • Eb
    • E
    • F
    • F#
    • G
    • Ab
  • Agregar a la lista

    0 comentarios

    Ver todos los comentarios

    ¿Lograste tocar?

    2 Tocaron 0 Aún no

    ¡Graba un video tocando Chasque Pra Dom Munhoz y envíanoslo!

    00:00 / 00:00
    Outros vídeos desta música
    Repetir Calidad Automático
    Outros vídeos desta música
    00:00 / 00:00
    Automático
    OK