Cifra Club

Madrecita

José José

Cifrado: Principal (guitarra y guitarra eléctrica)
tono: C
  C             Am              Dm            G7  C
E|-0-----0-1-3---0--------0-1-3--0-----0-1-0-0-----0---|
B|--3-1-3----------3-1-3-----------3-1---------3----3-1|
G|-----------------------------------------------------|
D|-----------------------------------------------------|
A|-----------------------------------------------------|
E|-----------------------------------------------------|

           Am             Dm            G7   C
E|---0-1-3--0-------0-1-3--0-----0-1-0-0------5--------|
B|-3----------3-1-3----------3-1---------3----5--------|
G|--------------------------------------------5--------|
D|-----------------------------------------------------|
A|-----------------------------------------------------|
E|-----------------------------------------------------|
00:00 / 00:00
Otros videos de esta canción
Repetir
Otros videos de esta canción
Composición de Osvaldo Farrés
121 exhibiciones
    • ½ Tono
    • A
    • Bb
    • B
    • C
    • Db
    • D
    • Eb
    • E
    • F
    • F#
    • G
    • Ab
  • Agregar a la lista
    00:00 / 00:00
    OK