Cifra Club

Sky

Joshua Radin

Cifrado: Principal (guitarra y guitarra eléctrica)
tono: E (con acordes en la forma de D) Capotraste en 2ª casa
Capo on second fret

Verses

I woke dreaming we had broke dreaming you left me for some one new
e|---------------------------------------------------------------------|
B|---------------------------------------------3-----------------------|
G|----------2-----------2----------------------2-----2-----------1-----|
D|----------2-----------4--------------------0-------4-----------2-----|
A|-------0------------4-----------------------------4-----------2------|
E|---------------------------------------------------------------------|
And you cried, drying those brown eyes, crying you're sorry but sorry won't do.
e|---------------------------------------------------------------------|
B|---------------------------------------------3-----------------------|
G|----------2-----------2----------------------2-----2-----------1-----|
D|----------2-----------4--------------------0-------4-----------2-----|
A|-------0------------4-----------------------------4-----------2------|
E|---------------------------------------------------------------------|

This is the way I need to wake
e|-------------------------------|
B|-------------------------------|
G|-----2-------1---------------2-|
D|-----2-------2---------------2-|
A|---4--------2--------------4---|
E|-------------------------------|
I'll wake to you
e|-----------------|
B|-----------------|
G|-----1--------2--|
D|-----2--------2--|
A|---2---------4---|
E|-----------------|
And you never left me
e|-------------------------------|
B|-------------------------------|
G|-----2-------1---------------2-|
D|-----2-------2---------------2-|
A|---4--------2--------------4---|
E|-------------------------------|
All that I'd dreamed had been untrue
e|------------------------------------|
B|--------------------------------3---|
G|--------------2----------1------2---|
D|--------------2----------2-----0----|
A|-------------4----------2-----------|
E|------------------------------------|
Open my eyes; I see see sky
e|-------------------|
B|----3--------------|
G|----2-----------1--|
D|---0------------2--|
A|---------------2---|
E|-------------------|

  Oh, oh, oh woah, no
e|--0---0---2--0----------|
B|--0---0---3--0----------|
G|--2---1---2--1----------|
D|--2---2---0--2----------|
A|--0---2---0--2----------|
E|--0---0---x--0----------|

The way to keep me on my toes
e|--0---0---2--0----------|
B|--0---0---3--0----------|
G|--2---1---2--1----------|
D|--2---2---0--2----------|
A|--0---2---0--2----------|
E|--0---0---x--0----------|
I, I, I will be fine

e|--0---0---2--0----------|
B|--0---0---3--0----------|
G|--2---1---2--1----------|
D|--2---2---0--2----------|
A|--0---2---0--2----------|
E|--0---0---x--0----------|

Just say you'll stay forever mine
e|--0---0---2--0----------|
B|--0---0---3--0----------|
G|--2---1---2--1----------|
D|--2---2---0--2----------|
A|--0---2---0--2----------|
E|--0---0---x--0----------|

'Til we fall asleep tonight
e|--0---2---0--0----------|
B|--0---2---0--0----------|
G|--2---2---1--2----------|
D|--2---4---2--2----------|
A|--0---4---2--0----------|
E|--0---2---0--0----------|

Last night We had a great fight I fell asleep in a horrible state
e|---------------------------------------------------------------------|
B|---------------------------------------------3-----------------------|
G|----------2-----------2----------------------2-----2-----------1-----|
D|----------2-----------4--------------------0-------4-----------2-----|
A|-------0------------4-----------------------------4-----------2------|
E|---------------------------------------------------------------------|

Then dreamt That you loved my best friend My heart would not mend Seemed it was fake, but
e|---------------------------------------------------------------------|
B|---------------------------------------------3-----------------------|
G|----------2-----------2----------------------2-----2-----------1-----|
D|----------2-----------4--------------------0-------4-----------2-----|
A|-------0------------4-----------------------------4-----------2------|
E|---------------------------------------------------------------------|

This is the way I need to wake
e|-------------------------------|
B|-------------------------------|
G|-----2-------1---------------2-|
D|-----2-------2---------------2-|
A|---4--------2--------------4---|
E|-------------------------------|
I'll wake to you
e|-----------------|
B|-----------------|
G|-----1--------2--|
D|-----2--------2--|
A|---2---------4---|
E|-----------------|

And you never left me
e|-------------------------------|
B|-------------------------------|
G|-----2-------1---------------2-|
D|-----2-------2---------------2-|
A|---4--------2--------------4---|
E|-------------------------------|

All that I'd dreamed had been untrue
e|------------------------------------|
B|--------------------------------3---|
G|--------------2----------1------2---|
D|--------------2----------2-----0----|
A|-------------4----------2-----------|
E|------------------------------------|

Open my eyes; I see see sky
e|-------------------|
B|----3--------------|
G|----2-----------1--|
D|---0------------2--|
A|---------------2---|
E|-------------------|

  Oh, oh, oh woah, no
e|--0---0---2--0----------|
B|--0---0---3--0----------|
G|--2---1---2--1----------|
D|--2---2---0--2----------|
A|--0---2---0--2----------|
E|--0---0---x--0----------|

The way to keep me on my toes
e|--0---0---2--0----------|
B|--0---0---3--0----------|
G|--2---1---2--1----------|
D|--2---2---0--2----------|
A|--0---2---0--2----------|
E|--0---0---x--0----------|

I, I, I will be fine
e|--0---0---2--0----------|
B|--0---0---3--0----------|
G|--2---1---2--1----------|
D|--2---2---0--2----------|
A|--0---2---0--2----------|
E|--0---0---x--0----------|

Just say you'll stay forever mine
e|--0---0---2--0----------|
B|--0---0---3--0----------|
G|--2---1---2--1----------|
D|--2---2---0--2----------|
A|--0---2---0--2----------|
E|--0---0---x--0----------|

'Til we fall asleep tonight
e|--0---2---0--0----------|
B|--0---2---0--0----------|
G|--2---2---1--2----------|
D|--2---4---2--2----------|
A|--0---4---2--0----------|
E|--0---2---0--0----------|

Sometimes I forget to love you like I should
e|---0-----2-------------2---------------0-----|
B|---0-----3-------------2---------------0-----|
G|---6-----2-------------2---------------1-----|
D|---6-----0-------------4---------------2-----|
A|---4-----0-------------4---------------2-----|
E|---0-----x-------------2---------------0-----|

But I'd never leave you No, I never would
e|---0-----2-------------2---------------0-----|
B|---0-----3-------------2---------------0-----|
G|---6-----2-------------2---------------1-----|
D|---6-----0-------------4---------------2-----|
A|---4-----0-------------4---------------2-----|
E|---0-----x-------------2---------------0-----|

I never would
e|---------0--|
B|---------0--|
G|---------1--|
D|---------2--|
A|---------2--|
E|---------0--|

  Oh, oh, oh woah, no
e|--0---0---2--0----------|
B|--0---0---3--0----------|
G|--2---1---2--1----------|
D|--2---2---0--2----------|
A|--0---2---0--2----------|
E|--0---0---x--0----------|

The way to keep me on my toes
e|--0---0---2--0----------|
B|--0---0---3--0----------|
G|--2---1---2--1----------|
D|--2---2---0--2----------|
A|--0---2---0--2----------|
E|--0---0---x--0----------|

I, I, I will be fine
e|--0---0---2--0----------|
B|--0---0---3--0----------|
G|--2---1---2--1----------|
D|--2---2---0--2----------|
A|--0---2---0--2----------|
E|--0---0---x--0----------|

Just say you'll stay forever mine
e|--0---0---2--0----------|
B|--0---0---3--0----------|
G|--2---1---2--1----------|
D|--2---2---0--2----------|
A|--0---2---0--2----------|
E|--0---0---x--0----------|

'Til we fall asleep tonight
e|--0---2---0--0----------|
B|--0---2---0--0----------|
G|--2---2---1--2----------|
D|--2---4---2--2----------|
A|--0---4---2--0----------|
E|--0---2---0--0----------|

  Oh, oh, oh woah, no
e|--0---0---2--0----------|
B|--0---0---3--0----------|
G|--2---1---2--1----------|
D|--2---2---0--2----------|
A|--0---2---0--2----------|
E|--0---0---x--0----------|

The way to keep me on my toes
e|--0---0---2--0----------|
B|--0---0---3--0----------|
G|--2---1---2--1----------|
D|--2---2---0--2----------|
A|--0---2---0--2----------|
E|--0---0---x--0----------|

I, I, I will be fine
e|--0---0---2--0----------|
B|--0---0---3--0----------|
G|--2---1---2--1----------|
D|--2---2---0--2----------|
A|--0---2---0--2----------|
E|--0---0---x--0----------|

Just say you'll stay forever mine
e|--0---0---2--0----------|
B|--0---0---3--0----------|
G|--2---1---2--1----------|
D|--2---2---0--2----------|
A|--0---2---0--2----------|
E|--0---0---x--0----------|

'Til we fall asleep tonight
e|--0---2---0--0----------|
B|--0---2---0--0----------|
G|--2---2---1--2----------|
D|--2---4---2--2----------|
A|--0---4---2--0----------|
E|--0---2---0--0----------|

'Til we fall asleep tonight
e|--0---2---0--0----------|
B|--0---2---0--0----------|
G|--2---2---1--2----------|
D|--2---4---2--2----------|
A|--0---4---2--0----------|
E|--0---2---0--0----------|
00:00 / 00:00
Otros videos de esta canción
Repetir
Otros videos de esta canción
Compositor no encontrado.
Colaboración y revisión:
  • Renato Jin
58 vistas
    • ½ Tono
    • A
    • Bb
    • B
    • C
    • Db
    • D
    • Eb
    • E
    • F
    • F#
    • G
    • Ab
  • Agregar a la lista

    0 comentarios

    Ver todos los comentarios

    ¿Lograste tocar?

    0 Tocaron 0 Aún no

    ¡Graba un video tocando Sky y envíanoslo!

    00:00 / 00:00
    OK