Cifra Club

Today Solo

Joshua Radin

Cifrado: Principal (guitarra y guitarra eléctrica)
tono: C
|------------------|------------------|
|------------------|------------------|
|--7-8-7---8-10-7--|--7-8-7--8-6-6h8--|
|-------10---------|-------10---------|
|------------------|------------------|
|------------------|------------------|

|------------------|------------------|
|------------------|------------------|
|--7-8-7---8-10-7--|--7-8-6h8-6-------|
|-------10---------|------------8-----|
|------------------|------------------|
|------------------|------------------|

|---------8-10-14--|-14-12-11-h12-11--|
|-----8-10---------|------------------|
|-8-10-------------|------------------|
|------------------|------------------|
|------------------|------------------|
|------------------|------------------|

|------------------|------------------|
|-12-h14-11-12-----|-10h11-10-8-10----|
|------------------|------------------|
|------------------|------------------|
|------------------|------------------|
|------------------|------------------|

|------------------|------------------|
|-10h11-10-8-------|-10-11-8-10-11-8--|
|------------------|------------------|
|------------------|------------------|
|------------------|------------------|
|------------------|------------------|

|------------------|--------8-10-11---|
|-10-11-8-10-11-8--|-8h10h11----------|
|------------------|------------------|
|------------------|------------------|
|------------------|------------------|
|------------------|------------------|

|-13-11-10-11-10---|-9/10--11/13-13---|
|------------------|-10/11-13/15-15---|
|------------------|------------------|
|------------------|------------------|
|------------------|------------------|
|------------------|------------------|

|-13/11/10---------|10/11/13-13/11/10-|
|-15/13/11---------|------------------|
|----------10------|-7/8/10---10/8/7--|
|------------------|------------------|
|------------------|------------------|
|------------------|------------------|

00:00 / 00:00
Otros videos de esta canción
Repetir
Otros videos de esta canción
Compositor no encontrado.
15 vistas
    • ½ Tono
    • A
    • Bb
    • B
    • C
    • Db
    • D
    • Eb
    • E
    • F
    • F#
    • G
    • Ab
  • Agregar a la lista

    0 comentarios

    Ver todos los comentarios

    ¿Lograste tocar?

    0 Tocaron 0 Aún no

    ¡Graba un video tocando Today Solo y envíanoslo!

    00:00 / 00:00
    OK