Cifra Club

What If You

Joshua Radin

Cifrado: Principal (guitarra y guitarra eléctrica)
tono: G
Em                    C                        G
--------------------------------------------------3------------------|
-----0--------------------1--------------------------0---------------|
--------0--------------------0-------------------------0-------------|
---2------2----2--0-----2------2---------------0----------0-0h2h0----|
------------2---------3-------------3-0h2h0--------------------------|
-0--------------------------------------------3----------------------|

D
--------2-------------2h3----------------|
-----------3---3-----------3---0---------|
-----2-------2-----2---------2-----------|
-----------------0-----------------------|
--0--------------------------------------|
-----------------------------------------|

Prechorus

Em                D               G
--------------------------------------3-------------------------------|
------0---------------3------------------3---3------------------------|
---------0---0-----------2---2-------------0--------------------------|
----2------2--------0------0--------0----------0----------------------|
--------------------------------------------------0h2h0--0--2---------|
--0---------------2---------------3-----------------------------------|

Chorus

-------------------------2----------2h3------------|
------1---------------------3------------3--3------|
--------0--------------2------2---2--------2-------|
----2-----2---0h20--------------0------------------|
--3---------3--------0-----------------------------|
---------------------------------------------------|

---------------------------------------------------|
------3---------3----------0-----------------------|
--------0---------2-----------0--------------------|
----0-----0---0-----0----2------2----2--0----------|
----------------------------------2--------3-------|
--3---------2---------0----------------------------|
00:00 / 00:00
Otros videos de esta canción
Repetir
Otros videos de esta canción
Composición de Joshua Radin
Colaboración y revisión:
  • Renato Jin
83 vistas
    • ½ Tono
    • A
    • Bb
    • B
    • C
    • Db
    • D
    • Eb
    • E
    • F
    • F#
    • G
    • Ab
  • Agregar a la lista

    0 comentarios

    Ver todos los comentarios

    ¿Lograste tocar?

    0 Tocaron 0 Aún no

    ¡Graba un video tocando What If You y envíanoslo!

    00:00 / 00:00
    OK