Cifra Club

Aprenda

As Dores do Mundo

Jota Quest

Tablatura: Principal (guitarra)
tono: C
(intro)

 G5 A5       C5  D5
|-----------/---------------|
|--------5--/---------5--7--|
|--------5--/---------5--7--|
|--------5--/--5--7---5--7--|
|--5--7-----/--3--5---------|
|--3--5-----/---------------|

E |---------------------------------------|
B |-8p10-10~-8p10-10~-8p10-10-10--8p10-10~|
G |---------------------------------------|
D |------SOLO-COM-WAH-WAH-----------------|
A |---------------------------------------|
E |---------------------------------------|

Am7
O teu olhar caiu no meu
Dm7
A tua boca na minha se perdeu
Fm7             Am7
Foi tudo lindo tão lindo foi
Dm7                      G7
Que eu nem me lembro o que veio depois

Am7
A tua voz  dizendo amor
Dm7
Foi tão bonito que o tempo ate parou
Fm7            Am7
De duas vidas uma se fez
Dm7
E eu me senti
G7
Nascendo outra vez

(refrão)
    C7+               Dm7
E eu vou esquecer de tudo
             Em7
As dores do mundo
             F           G7
Não quero saber quem fui mas sim quem sou
    C7+               Dm7
E eu vou esquecer de tudo
             Em7
As dores do mundo
             F             G7
Só quero saber do seu do nosso amor

(repete tudo)

-----------------------/---------------------------
-----------------------/---------------------------
-----------------------/---------------------------
---------------2-2-5-2-/--------------7-5-2--------
--------3-4-5----------/-------3-4-5--------5------
---3-5-----------------/--3-5----------------------

G5 A5       C5  D5
-----------/------------------------
-----------/------------------------
-----------/------------------------
-----------/--5--7------------------
--5--7-----/--3--5------------------
--3--5-----/------------------------
Composição de Hyldon
Colaboración y revision:
  • danilo oliveira
  • Jeison Ramos
  • Davi Lelis
1.136 reproducciones
    • ½ Tono
    • A
    • Bb
    • B
    • C
    • Db
    • D
    • Eb
    • E
    • F
    • F#
    • G
    • Ab
  • Adicionar à lista

    0 comentarios

    Ver todos os comentários

    ¿Conseguiste tocar?

    12 Tocaram 2 Ainda não

    Grave um vídeo tocando As Dores do Mundo e nos envie!

    00:00 / 00:00
    outros vídeos desta música
    repetir qualidade Automático
    Outros vídeos desta música
    00:00 / 00:00
    Automático
    OK